 0
SECTION
 2
TABLES
 0
TABLE
 2
LAYER
 70
    4
 0
LAYER
 2
0
 70
0
 62
7
 6
CONTINUOUS
 0
LAYER
 2
PARTSOLIDS
 70
0
 62
147
 6
CONTINUOUS
 0
LAYER
 2
UNITS
 70
0
 62
7
 6
CONTINUOUS
 0
LAYER
 2
CUT_ORDER
 70
0
 62
7
 6
CONTINUOUS
 0
ENDTAB
 0
ENDSEC
 0
SECTION
 2
ENTITIES
 0
POLYLINE
 8
0
 62
7
 66
 1
 10
0.0
 20
0.0
 30
0.0
 70
1
 0
VERTEX
 8
0
 10
239.307263
 20
102.028479
 30
0.0
 0
VERTEX
 8
0
 10
239.307263
 20
94.863478
 30
0.0
 0
VERTEX
 8
0
 10
247.587262
 20
94.863478
 30
0.0
 0
VERTEX
 8
0
 10
247.587262
 20
102.028479
 30
0.0
 0
VERTEX
 8
0
 10
249.824757
 20
102.028479
 30
0.0
 0
VERTEX
 8
0
 10
249.824757
 20
84.905982
 30
0.0
 0
VERTEX
 8
0
 10
247.587262
 20
84.905982
 30
0.0
 0
VERTEX
 8
0
 10
247.587262
 20
92.933486
 30
0.0
 0
VERTEX
 8
0
 10
239.307263
 20
92.933486
 30
0.0
 0
VERTEX
 8
0
 10
239.307263
 20
84.905982
 30
0.0
 0
VERTEX
 8
0
 10
237.072270
 20
84.905982
 30
0.0
 0
VERTEX
 8
0
 10
237.072270
 20
102.028479
 30
0.0
 0
SEQEND
 8
0
 0
POLYLINE
 8
0
 62
7
 66
 1
 10
0.0
 20
0.0
 30
0.0
 70
1
 0
VERTEX
 8
0
 10
207.562260
 20
102.165984
 30
0.0
 0
VERTEX
 8
0
 10
207.562260
 20
92.005980
 30
0.0
 0
VERTEX
 8
0
 10
207.582265
 20
91.315985
 30
0.0
 0
VERTEX
 8
0
 10
207.639760
 20
90.678481
 30
0.0
 0
VERTEX
 8
0
 10
207.734761
 20
90.088485
 30
0.0
 0
VERTEX
 8
0
 10
207.864766
 20
89.548484
 30
0.0
 0
VERTEX
 8
0
 10
208.027272
 20
89.055983
 30
0.0
 0
VERTEX
 8
0
 10
208.222264
 20
88.610984
 30
0.0
 0
VERTEX
 8
0
 10
208.447270
 20
88.213485
 30
0.0
 0
VERTEX
 8
0
 10
208.699772
 20
87.860984
 30
0.0
 0
VERTEX
 8
0
 10
208.979771
 20
87.550978
 30
0.0
 0
VERTEX
 8
0
 10
209.284764
 20
87.285979
 30
0.0
 0
VERTEX
 8
0
 10
209.612263
 20
87.063483
 30
0.0
 0
VERTEX
 8
0
 10
209.962269
 20
86.883483
 30
0.0
 0
VERTEX
 8
0
 10
210.332265
 20
86.745986
 30
0.0
 0
VERTEX
 8
0
 10
210.722264
 20
86.648482
 30
0.0
 0
VERTEX
 8
0
 10
211.127263
 20
86.590979
 30
0.0
 0
VERTEX
 8
0
 10
211.549763
 20
86.570983
 30
0.0
 0
VERTEX
 8
0
 10
212.012272
 20
86.590979
 30
0.0
 0
VERTEX
 8
0
 10
212.449772
 20
86.650985
 30
0.0
 0
VERTEX
 8
0
 10
212.867268
 20
86.750983
 30
0.0
 0
VERTEX
 8
0
 10
213.262272
 20
86.890982
 30
0.0
 0
VERTEX
 8
0
 10
213.629765
 20
87.073485
 30
0.0
 0
VERTEX
 8
0
 10
213.974766
 20
87.298484
 30
0.0
 0
VERTEX
 8
0
 10
214.289769
 20
87.565985
 30
0.0
 0
VERTEX
 8
0
 10
214.577260
 20
87.878485
 30
0.0
 0
VERTEX
 8
0
 10
214.834767
 20
88.233481
 30
0.0
 0
VERTEX
 8
0
 10
215.062260
 20
88.633483
 30
0.0
 0
VERTEX
 8
0
 10
215.257268
 20
89.078482
 30
0.0
 0
VERTEX
 8
0
 10
215.419758
 20
89.570983
 30
0.0
 0
VERTEX
 8
0
 10
215.547261
 20
90.108481
 30
0.0
 0
VERTEX
 8
0
 10
215.642262
 20
90.693480
 30
0.0
 0
VERTEX
 8
0
 10
215.697270
 20
91.325980
 30
0.0
 0
VERTEX
 8
0
 10
215.717259
 20
92.005980
 30
0.0
 0
VERTEX
 8
0
 10
215.717259
 20
102.165984
 30
0.0
 0
VERTEX
 8
0
 10
217.952260
 20
102.165984
 30
0.0
 0
VERTEX
 8
0
 10
217.952260
 20
92.158484
 30
0.0
 0
VERTEX
 8
0
 10
217.944768
 20
91.673484
 30
0.0
 0
VERTEX
 8
0
 10
217.919758
 20
91.208480
 30
0.0
 0
VERTEX
 8
0
 10
217.879765
 20
90.760985
 30
0.0
 0
VERTEX
 8
0
 10
217.827260
 20
90.330985
 30
0.0
 0
VERTEX
 8
0
 10
217.757268
 20
89.918479
 30
0.0
 0
VERTEX
 8
0
 10
217.672261
 20
89.523482
 30
0.0
 0
VERTEX
 8
0
 10
217.574772
 20
89.145980
 30
0.0
 0
VERTEX
 8
0
 10
217.462269
 20
88.785979
 30
0.0
 0
VERTEX
 8
0
 10
217.337269
 20
88.440985
 30
0.0
 0
VERTEX
 8
0
 10
217.197270
 20
88.113478
 30
0.0
 0
VERTEX
 8
0
 10
217.044758
 20
87.803481
 30
0.0
 0
VERTEX
 8
0
 10
216.879765
 20
87.508483
 30
0.0
 0
VERTEX
 8
0
 10
216.704762
 20
87.230979
 30
0.0
 0
VERTEX
 8
0
 10
216.514760
 20
86.968482
 30
0.0
 0
VERTEX
 8
0
 10
216.314763
 20
86.720984
 30
0.0
 0
VERTEX
 8
0
 10
216.104771
 20
86.490981
 30
0.0
 0
VERTEX
 8
0
 10
215.882268
 20
86.275985
 30
0.0
 0
VERTEX
 8
0
 10
215.649769
 20
86.073485
 30
0.0
 0
VERTEX
 8
0
 10
215.407261
 20
85.888480
 30
0.0
 0
VERTEX
 8
0
 10
215.154759
 20
85.718482
 30
0.0
 0
VERTEX
 8
0
 10
214.622258
 20
85.420981
 30
0.0
 0
VERTEX
 8
0
 10
214.052266
 20
85.180983
 30
0.0
 0
VERTEX
 8
0
 10
213.449772
 20
84.998481
 30
0.0
 0
VERTEX
 8
0
 10
212.817265
 20
84.868483
 30
0.0
 0
VERTEX
 8
0
 10
212.159764
 20
84.790984
 30
0.0
 0
VERTEX
 8
0
 10
211.474766
 20
84.765982
 30
0.0
 0
VERTEX
 8
0
 10
210.827260
 20
84.788481
 30
0.0
 0
VERTEX
 8
0
 10
210.204762
 20
84.860984
 30
0.0
 0
VERTEX
 8
0
 10
209.604771
 20
84.983481
 30
0.0
 0
VERTEX
 8
0
 10
209.034764
 20
85.158484
 30
0.0
 0
VERTEX
 8
0
 10
208.494771
 20
85.388480
 30
0.0
 0
VERTEX
 8
0
 10
207.989766
 20
85.673484
 30
0.0
 0
VERTEX
 8
0
 10
207.749760
 20
85.838485
 30
0.0
 0
VERTEX
 8
0
 10
207.519765
 20
86.018485
 30
0.0
 0
VERTEX
 8
0
 10
207.297261
 20
86.213485
 30
0.0
 0
VERTEX
 8
0
 10
207.087269
 20
86.423484
 30
0.0
 0
VERTEX
 8
0
 10
206.884770
 20
86.650985
 30
0.0
 0
VERTEX
 8
0
 10
206.694768
 20
86.890982
 30
0.0
 0
VERTEX
 8
0
 10
206.517262
 20
87.148482
 30
0.0
 0
VERTEX
 8
0
 10
206.347264
 20
87.423484
 30
0.0
 0
VERTEX
 8
0
 10
206.192265
 20
87.713485
 30
0.0
 0
VERTEX
 8
0
 10
206.047261
 20
88.023482
 30
0.0
 0
VERTEX
 8
0
 10
205.914769
 20
88.345984
 30
0.0
 0
VERTEX
 8
0
 10
205.794758
 20
88.688483
 30
0.0
 0
VERTEX
 8
0
 10
205.687260
 20
89.048484
 30
0.0
 0
VERTEX
 8
0
 10
205.594761
 20
89.425978
 30
0.0
 0
VERTEX
 8
0
 10
205.514760
 20
89.823485
 30
0.0
 0
VERTEX
 8
0
 10
205.447270
 20
90.238478
 30
0.0
 0
VERTEX
 8
0
 10
205.394765
 20
90.670981
 30
0.0
 0
VERTEX
 8
0
 10
205.357258
 20
91.120986
 30
0.0
 0
VERTEX
 8
0
 10
205.334767
 20
91.593482
 30
0.0
 0
VERTEX
 8
0
 10
205.327260
 20
92.083480
 30
0.0
 0
VERTEX
 8
0
 10
205.327260
 20
102.165984
 30
0.0
 0
SEQEND
 8
0
 0
POLYLINE
 8
0
 62
7
 66
 1
 10
0.0
 20
0.0
 30
0.0
 70
1
 0
VERTEX
 8
0
 10
173.787266
 20
102.028479
 30
0.0
 0
VERTEX
 8
0
 10
175.997273
 20
102.028479
 30
0.0
 0
VERTEX
 8
0
 10
175.997273
 20
93.770980
 30
0.0
 0
VERTEX
 8
0
 10
176.074772
 20
93.770980
 30
0.0
 0
VERTEX
 8
0
 10
176.417271
 20
94.255980
 30
0.0
 0
VERTEX
 8
0
 10
176.754765
 20
94.723479
 30
0.0
 0
VERTEX
 8
0
 10
177.092259
 20
95.170981
 30
0.0
 0
VERTEX
 8
0
 10
177.419758
 20
95.600981
 30
0.0
 0
VERTEX
 8
0
 10
182.652272
 20
102.028479
 30
0.0
 0
VERTEX
 8
0
 10
185.394765
 20
102.028479
 30
0.0
 0
VERTEX
 8
0
 10
179.197270
 20
94.763480
 30
0.0
 0
VERTEX
 8
0
 10
185.879765
 20
84.905982
 30
0.0
 0
VERTEX
 8
0
 10
183.262272
 20
84.905982
 30
0.0
 0
VERTEX
 8
0
 10
177.649769
 20
93.313483
 30
0.0
 0
VERTEX
 8
0
 10
175.997273
 20
91.435981
 30
0.0
 0
VERTEX
 8
0
 10
175.997273
 20
84.905982
 30
0.0
 0
VERTEX
 8
0
 10
173.787266
 20
84.905982
 30
0.0
 0
SEQEND
 8
0
 0
POLYLINE
 8
0
 62
7
 66
 1
 10
0.0
 20
0.0
 30
0.0
 70
1
 0
VERTEX
 8
0
 10
141.599766
 20
84.905982
 30
0.0
 0
VERTEX
 8
0
 10
141.599766
 20
102.028479
 30
0.0
 0
VERTEX
 8
0
 10
144.037266
 20
102.028479
 30
0.0
 0
VERTEX
 8
0
 10
149.499760
 20
93.365981
 30
0.0
 0
VERTEX
 8
0
 10
149.954762
 20
92.623481
 30
0.0
 0
VERTEX
 8
0
 10
150.389760
 20
91.895980
 30
0.0
 0
VERTEX
 8
0
 10
150.802266
 20
91.185981
 30
0.0
 0
VERTEX
 8
0
 10
151.194768
 20
90.488478
 30
0.0
 0
VERTEX
 8
0
 10
151.564763
 20
89.803481
 30
0.0
 0
VERTEX
 8
0
 10
151.914769
 20
89.128485
 30
0.0
 0
VERTEX
 8
0
 10
152.242268
 20
88.463485
 30
0.0
 0
VERTEX
 8
0
 10
152.547261
 20
87.803481
 30
0.0
 0
VERTEX
 8
0
 10
152.624760
 20
87.828482
 30
0.0
 0
VERTEX
 8
0
 10
152.554768
 20
88.678481
 30
0.0
 0
VERTEX
 8
0
 10
152.497273
 20
89.515982
 30
0.0
 0
VERTEX
 8
0
 10
152.454762
 20
90.355979
 30
0.0
 0
VERTEX
 8
0
 10
152.419774
 20
91.203482
 30
0.0
 0
VERTEX
 8
0
 10
152.397267
 20
92.068480
 30
0.0
 0
VERTEX
 8
0
 10
152.379765
 20
92.960982
 30
0.0
 0
VERTEX
 8
0
 10
152.372273
 20
93.888480
 30
0.0
 0
VERTEX
 8
0
 10
152.369771
 20
94.863478
 30
0.0
 0
VERTEX
 8
0
 10
152.369771
 20
102.028479
 30
0.0
 0
VERTEX
 8
0
 10
154.452260
 20
102.028479
 30
0.0
 0
VERTEX
 8
0
 10
154.452260
 20
84.905982
 30
0.0
 0
VERTEX
 8
0
 10
152.217259
 20
84.905982
 30
0.0
 0
VERTEX
 8
0
 10
146.779774
 20
93.593482
 30
0.0
 0
VERTEX
 8
0
 10
145.897267
 20
95.028479
 30
0.0
 0
VERTEX
 8
0
 10
145.472264
 20
95.750983
 30
0.0
 0
VERTEX
 8
0
 10
145.059773
 20
96.470984
 30
0.0
 0
VERTEX
 8
0
 10
144.662266
 20
97.188483
 30
0.0
 0
VERTEX
 8
0
 10
144.287266
 20
97.900985
 30
0.0
 0
VERTEX
 8
0
 10
143.932271
 20
98.608481
 30
0.0
 0
VERTEX
 8
0
 10
143.604771
 20
99.308478
 30
0.0
 0
VERTEX
 8
0
 10
143.529774
 20
99.283484
 30
0.0
 0
VERTEX
 8
0
 10
143.607274
 20
97.670981
 30
0.0
 0
VERTEX
 8
0
 10
143.634770
 20
96.850981
 30
0.0
 0
VERTEX
 8
0
 10
143.654774
 20
96.010985
 30
0.0
 0
VERTEX
 8
0
 10
143.667271
 20
95.138480
 30
0.0
 0
VERTEX
 8
0
 10
143.677266
 20
94.223479
 30
0.0
 0
VERTEX
 8
0
 10
143.679768
 20
93.745986
 30
0.0
 0
VERTEX
 8
0
 10
143.679768
 20
93.255980
 30
0.0
 0
VERTEX
 8
0
 10
143.682271
 20
92.748481
 30
0.0
 0
VERTEX
 8
0
 10
143.682271
 20
92.223479
 30
0.0
 0
VERTEX
 8
0
 10
143.682271
 20
84.905982
 30
0.0
 0
SEQEND
 8
0
 0
POLYLINE
 8
0
 62
7
 66
 1
 10
0.0
 20
0.0
 30
0.0
 70
1
 0
VERTEX
 8
0
 10
112.139775
 20
102.165984
 30
0.0
 0
VERTEX
 8
0
 10
112.139775
 20
92.005980
 30
0.0
 0
VERTEX
 8
0
 10
112.159764
 20
91.315985
 30
0.0
 0
VERTEX
 8
0
 10
112.217274
 20
90.678481
 30
0.0
 0
VERTEX
 8
0
 10
112.312260
 20
90.088485
 30
0.0
 0
VERTEX
 8
0
 10
112.442265
 20
89.548484
 30
0.0
 0
VERTEX
 8
0
 10
112.604771
 20
89.055983
 30
0.0
 0
VERTEX
 8
0
 10
112.799763
 20
88.610984
 30
0.0
 0
VERTEX
 8
0
 10
113.024769
 20
88.213485
 30
0.0
 0
VERTEX
 8
0
 10
113.277272
 20
87.860984
 30
0.0
 0
VERTEX
 8
0
 10
113.557271
 20
87.550978
 30
0.0
 0
VERTEX
 8
0
 10
113.862263
 20
87.285979
 30
0.0
 0
VERTEX
 8
0
 10
114.189763
 20
87.063483
 30
0.0
 0
VERTEX
 8
0
 10
114.542271
 20
86.883483
 30
0.0
 0
VERTEX
 8
0
 10
114.912266
 20
86.745986
 30
0.0
 0
VERTEX
 8
0
 10
115.302266
 20
86.648482
 30
0.0
 0
VERTEX
 8
0
 10
115.707265
 20
86.590979
 30
0.0
 0
VERTEX
 8
0
 10
116.129765
 20
86.570983
 30
0.0
 0
VERTEX
 8
0
 10
116.589772
 20
86.590979
 30
0.0
 0
VERTEX
 8
0
 10
117.029774
 20
86.650985
 30
0.0
 0
VERTEX
 8
0
 10
117.447270
 20
86.750983
 30
0.0
 0
VERTEX
 8
0
 10
117.842274
 20
86.890982
 30
0.0
 0
VERTEX
 8
0
 10
118.209767
 20
87.073485
 30
0.0
 0
VERTEX
 8
0
 10
118.552266
 20
87.298484
 30
0.0
 0
VERTEX
 8
0
 10
118.867268
 20
87.565985
 30
0.0
 0
VERTEX
 8
0
 10
119.154774
 20
87.878485
 30
0.0
 0
VERTEX
 8
0
 10
119.412266
 20
88.233481
 30
0.0
 0
VERTEX
 8
0
 10
119.639775
 20
88.633483
 30
0.0
 0
VERTEX
 8
0
 10
119.834767
 20
89.078482
 30
0.0
 0
VERTEX
 8
0
 10
119.997273
 20
89.570983
 30
0.0
 0
VERTEX
 8
0
 10
120.124760
 20
90.108481
 30
0.0
 0
VERTEX
 8
0
 10
120.219761
 20
90.693480
 30
0.0
 0
VERTEX
 8
0
 10
120.274769
 20
91.325980
 30
0.0
 0
VERTEX
 8
0
 10
120.294774
 20
92.005980
 30
0.0
 0
VERTEX
 8
0
 10
120.294774
 20
102.165984
 30
0.0
 0
VERTEX
 8
0
 10
122.529774
 20
102.165984
 30
0.0
 0
VERTEX
 8
0
 10
122.529774
 20
92.158484
 30
0.0
 0
VERTEX
 8
0
 10
122.522267
 20
91.673484
 30
0.0
 0
VERTEX
 8
0
 10
122.497273
 20
91.208480
 30
0.0
 0
VERTEX
 8
0
 10
122.457265
 20
90.760985
 30
0.0
 0
VERTEX
 8
0
 10
122.404774
 20
90.330985
 30
0.0
 0
VERTEX
 8
0
 10
122.334767
 20
89.918479
 30
0.0
 0
VERTEX
 8
0
 10
122.249760
 20
89.523482
 30
0.0
 0
VERTEX
 8
0
 10
122.152272
 20
89.145980
 30
0.0
 0
VERTEX
 8
0
 10
122.039769
 20
88.785979
 30
0.0
 0
VERTEX
 8
0
 10
121.914769
 20
88.440985
 30
0.0
 0
VERTEX
 8
0
 10
121.774769
 20
88.113478
 30
0.0
 0
VERTEX
 8
0
 10
121.622273
 20
87.803481
 30
0.0
 0
VERTEX
 8
0
 10
121.457265
 20
87.508483
 30
0.0
 0
VERTEX
 8
0
 10
121.282261
 20
87.230979
 30
0.0
 0
VERTEX
 8
0
 10
121.092274
 20
86.968482
 30
0.0
 0
VERTEX
 8
0
 10
120.892262
 20
86.720984
 30
0.0
 0
VERTEX
 8
0
 10
120.682271
 20
86.490981
 30
0.0
 0
VERTEX
 8
0
 10
120.459767
 20
86.275985
 30
0.0
 0
VERTEX
 8
0
 10
120.227269
 20
86.073485
 30
0.0
 0
VERTEX
 8
0
 10
119.984761
 20
85.888480
 30
0.0
 0
VERTEX
 8
0
 10
119.732274
 20
85.718482
 30
0.0
 0
VERTEX
 8
0
 10
119.199772
 20
85.420981
 30
0.0
 0
VERTEX
 8
0
 10
118.629765
 20
85.180983
 30
0.0
 0
VERTEX
 8
0
 10
118.027272
 20
84.998481
 30
0.0
 0
VERTEX
 8
0
 10
117.394765
 20
84.868483
 30
0.0
 0
VERTEX
 8
0
 10
116.737263
 20
84.790984
 30
0.0
 0
VERTEX
 8
0
 10
116.052266
 20
84.765982
 30
0.0
 0
VERTEX
 8
0
 10
115.404774
 20
84.788481
 30
0.0
 0
VERTEX
 8
0
 10
114.782261
 20
84.860984
 30
0.0
 0
VERTEX
 8
0
 10
114.182271
 20
84.983481
 30
0.0
 0
VERTEX
 8
0
 10
113.612263
 20
85.158484
 30
0.0
 0
VERTEX
 8
0
 10
113.072270
 20
85.388480
 30
0.0
 0
VERTEX
 8
0
 10
112.567265
 20
85.673484
 30
0.0
 0
VERTEX
 8
0
 10
112.327275
 20
85.838485
 30
0.0
 0
VERTEX
 8
0
 10
112.097264
 20
86.018485
 30
0.0
 0
VERTEX
 8
0
 10
111.874760
 20
86.213485
 30
0.0
 0
VERTEX
 8
0
 10
111.664769
 20
86.423484
 30
0.0
 0
VERTEX
 8
0
 10
111.462269
 20
86.650985
 30
0.0
 0
VERTEX
 8
0
 10
111.272267
 20
86.890982
 30
0.0
 0
VERTEX
 8
0
 10
111.094761
 20
87.148482
 30
0.0
 0
VERTEX
 8
0
 10
110.924763
 20
87.423484
 30
0.0
 0
VERTEX
 8
0
 10
110.769765
 20
87.713485
 30
0.0
 0
VERTEX
 8
0
 10
110.624760
 20
88.023482
 30
0.0
 0
VERTEX
 8
0
 10
110.492268
 20
88.345984
 30
0.0
 0
VERTEX
 8
0
 10
110.372273
 20
88.688483
 30
0.0
 0
VERTEX
 8
0
 10
110.264775
 20
89.048484
 30
0.0
 0
VERTEX
 8
0
 10
110.172276
 20
89.425978
 30
0.0
 0
VERTEX
 8
0
 10
110.092290
 20
89.823485
 30
0.0
 0
VERTEX
 8
0
 10
110.024785
 20
90.238478
 30
0.0
 0
VERTEX
 8
0
 10
109.972264
 20
90.670981
 30
0.0
 0
VERTEX
 8
0
 10
109.934788
 20
91.120986
 30
0.0
 0
VERTEX
 8
0
 10
109.912266
 20
91.593482
 30
0.0
 0
VERTEX
 8
0
 10
109.904790
 20
92.083480
 30
0.0
 0
VERTEX
 8
0
 10
109.904790
 20
102.165984
 30
0.0
 0
SEQEND
 8
0
 0
POLYLINE
 8
0
 62
7
 66
 1
 10
0.0
 20
0.0
 30
0.0
 70
1
 0
VERTEX
 8
0
 10
88.449772
 20
92.933486
 30
0.0
 0
VERTEX
 8
0
 10
81.819768
 20
92.933486
 30
0.0
 0
VERTEX
 8
0
 10
81.819768
 20
86.760985
 30
0.0
 0
VERTEX
 8
0
 10
89.237279
 20
86.760985
 30
0.0
 0
VERTEX
 8
0
 10
89.237279
 20
84.905982
 30
0.0
 0
VERTEX
 8
0
 10
79.584782
 20
84.905982
 30
0.0
 0
VERTEX
 8
0
 10
79.584782
 20
102.028479
 30
0.0
 0
VERTEX
 8
0
 10
88.854771
 20
102.028479
 30
0.0
 0
VERTEX
 8
0
 10
88.854771
 20
100.173484
 30
0.0
 0
VERTEX
 8
0
 10
81.819768
 20
100.173484
 30
0.0
 0
VERTEX
 8
0
 10
81.819768
 20
94.763480
 30
0.0
 0
VERTEX
 8
0
 10
88.449772
 20
94.763480
 30
0.0
 0
SEQEND
 8
0
 0
POLYLINE
 8
0
 62
7
 66
 1
 10
0.0
 20
0.0
 30
0.0
 70
1
 0
VERTEX
 8
0
 10
46.177281
 20
84.905982
 30
0.0
 0
VERTEX
 8
0
 10
46.177281
 20
102.028479
 30
0.0
 0
VERTEX
 8
0
 10
48.614781
 20
102.028479
 30
0.0
 0
VERTEX
 8
0
 10
54.077275
 20
93.365981
 30
0.0
 0
VERTEX
 8
0
 10
54.532261
 20
92.623481
 30
0.0
 0
VERTEX
 8
0
 10
54.967290
 20
91.895980
 30
0.0
 0
VERTEX
 8
0
 10
55.379765
 20
91.185981
 30
0.0
 0
VERTEX
 8
0
 10
55.772282
 20
90.488478
 30
0.0
 0
VERTEX
 8
0
 10
56.142277
 20
89.803481
 30
0.0
 0
VERTEX
 8
0
 10
56.492283
 20
89.128485
 30
0.0
 0
VERTEX
 8
0
 10
56.819768
 20
88.463485
 30
0.0
 0
VERTEX
 8
0
 10
57.124791
 20
87.803481
 30
0.0
 0
VERTEX
 8
0
 10
57.202275
 20
87.828482
 30
0.0
 0
VERTEX
 8
0
 10
57.132268
 20
88.678481
 30
0.0
 0
VERTEX
 8
0
 10
57.074772
 20
89.515982
 30
0.0
 0
VERTEX
 8
0
 10
57.032261
 20
90.355979
 30
0.0
 0
VERTEX
 8
0
 10
56.997288
 20
91.203482
 30
0.0
 0
VERTEX
 8
0
 10
56.974766
 20
92.068480
 30
0.0
 0
VERTEX
 8
0
 10
56.957280
 20
92.960982
 30
0.0
 0
VERTEX
 8
0
 10
56.949772
 20
93.888480
 30
0.0
 0
VERTEX
 8
0
 10
56.947270
 20
94.863478
 30
0.0
 0
VERTEX
 8
0
 10
56.947270
 20
102.028479
 30
0.0
 0
VERTEX
 8
0
 10
59.029790
 20
102.028479
 30
0.0
 0
VERTEX
 8
0
 10
59.029790
 20
84.905982
 30
0.0
 0
VERTEX
 8
0
 10
56.794774
 20
84.905982
 30
0.0
 0
VERTEX
 8
0
 10
51.357274
 20
93.593482
 30
0.0
 0
VERTEX
 8
0
 10
50.477269
 20
95.028479
 30
0.0
 0
VERTEX
 8
0
 10
50.049779
 20
95.750983
 30
0.0
 0
VERTEX
 8
0
 10
49.637272
 20
96.470984
 30
0.0
 0
VERTEX
 8
0
 10
49.242283
 20
97.188483
 30
0.0
 0
VERTEX
 8
0
 10
48.864781
 20
97.900985
 30
0.0
 0
VERTEX
 8
0
 10
48.509770
 20
98.608481
 30
0.0
 0
VERTEX
 8
0
 10
48.182286
 20
99.308478
 30
0.0
 0
VERTEX
 8
0
 10
48.107274
 20
99.283484
 30
0.0
 0
VERTEX
 8
0
 10
48.184788
 20
97.670981
 30
0.0
 0
VERTEX
 8
0
 10
48.212285
 20
96.850981
 30
0.0
 0
VERTEX
 8
0
 10
48.232274
 20
96.010985
 30
0.0
 0
VERTEX
 8
0
 10
48.244786
 20
95.138480
 30
0.0
 0
VERTEX
 8
0
 10
48.254765
 20
94.223479
 30
0.0
 0
VERTEX
 8
0
 10
48.257268
 20
93.745986
 30
0.0
 0
VERTEX
 8
0
 10
48.257268
 20
93.255980
 30
0.0
 0
VERTEX
 8
0
 10
48.259770
 20
92.748481
 30
0.0
 0
VERTEX
 8
0
 10
48.259770
 20
92.223479
 30
0.0
 0
VERTEX
 8
0
 10
48.259770
 20
84.905982
 30
0.0
 0
SEQEND
 8
0
 0
POLYLINE
 8
0
 62
7
 66
 1
 10
0.0
 20
0.0
 30
0.0
 70
1
 0
VERTEX
 8
0
 10
16.654790
 20
102.028479
 30
0.0
 0
VERTEX
 8
0
 10
16.654790
 20
94.863478
 30
0.0
 0
VERTEX
 8
0
 10
24.937291
 20
94.863478
 30
0.0
 0
VERTEX
 8
0
 10
24.937291
 20
102.028479
 30
0.0
 0
VERTEX
 8
0
 10
27.172276
 20
102.028479
 30
0.0
 0
VERTEX
 8
0
 10
27.172276
 20
84.905982
 30
0.0
 0
VERTEX
 8
0
 10
24.937291
 20
84.905982
 30
0.0
 0
VERTEX
 8
0
 10
24.937291
 20
92.933486
 30
0.0
 0
VERTEX
 8
0
 10
16.654790
 20
92.933486
 30
0.0
 0
VERTEX
 8
0
 10
16.654790
 20
84.905982
 30
0.0
 0
VERTEX
 8
0
 10
14.419774
 20
84.905982
 30
0.0
 0
VERTEX
 8
0
 10
14.419774
 20
102.028479
 30
0.0
 0
SEQEND
 8
0
 0
POLYLINE
 8
0
 62
7
 66
 1
 10
0.0
 20
0.0
 30
0.0
 70
1
 0
VERTEX
 8
0
 10
-6.972713
 20
92.933486
 30
0.0
 0
VERTEX
 8
0
 10
-13.602718
 20
92.933486
 30
0.0
 0
VERTEX
 8
0
 10
-13.602718
 20
86.760985
 30
0.0
 0
VERTEX
 8
0
 10
-6.185237
 20
86.760985
 30
0.0
 0
VERTEX
 8
0
 10
-6.185237
 20
84.905982
 30
0.0
 0
VERTEX
 8
0
 10
-15.837734
 20
84.905982
 30
0.0
 0
VERTEX
 8
0
 10
-15.837734
 20
102.028479
 30
0.0
 0
VERTEX
 8
0
 10
-6.565212
 20
102.028479
 30
0.0
 0
VERTEX
 8
0
 10
-6.565212
 20
100.173484
 30
0.0
 0
VERTEX
 8
0
 10
-13.602718
 20
100.173484
 30
0.0
 0
VERTEX
 8
0
 10
-13.602718
 20
94.763480
 30
0.0
 0
VERTEX
 8
0
 10
-6.972713
 20
94.763480
 30
0.0
 0
SEQEND
 8
0
 0
POLYLINE
 8
0
 62
7
 66
 1
 10
0.0
 20
0.0
 30
0.0
 70
1
 0
VERTEX
 8
0
 10
-49.067714
 20
86.200980
 30
0.0
 0
VERTEX
 8
0
 10
-39.592708
 20
100.095984
 30
0.0
 0
VERTEX
 8
0
 10
-39.592708
 20
100.173484
 30
0.0
 0
VERTEX
 8
0
 10
-48.255214
 20
100.173484
 30
0.0
 0
VERTEX
 8
0
 10
-48.255214
 20
102.028479
 30
0.0
 0
VERTEX
 8
0
 10
-36.697719
 20
102.028479
 30
0.0
 0
VERTEX
 8
0
 10
-36.697719
 20
100.680983
 30
0.0
 0
VERTEX
 8
0
 10
-46.147731
 20
86.835982
 30
0.0
 0
VERTEX
 8
0
 10
-46.147731
 20
86.760985
 30
0.0
 0
VERTEX
 8
0
 10
-36.570217
 20
86.760985
 30
0.0
 0
VERTEX
 8
0
 10
-36.570217
 20
84.905982
 30
0.0
 0
VERTEX
 8
0
 10
-49.067714
 20
84.905982
 30
0.0
 0
SEQEND
 8
0
 0
POLYLINE
 8
0
 62
7
 66
 1
 10
0.0
 20
0.0
 30
0.0
 70
1
 0
VERTEX
 8
0
 10
270.559758
 20
137.053473
 30
0.0
 0
VERTEX
 8
0
 10
279.779759
 20
137.053473
 30
0.0
 0
VERTEX
 8
0
 10
279.779759
 20
135.198478
 30
0.0
 0
VERTEX
 8
0
 10
272.794758
 20
135.198478
 30
0.0
 0
VERTEX
 8
0
 10
272.794758
 20
129.508475
 30
0.0
 0
VERTEX
 8
0
 10
279.247258
 20
129.508475
 30
0.0
 0
VERTEX
 8
0
 10
279.247258
 20
127.680983
 30
0.0
 0
VERTEX
 8
0
 10
272.794758
 20
127.680983
 30
0.0
 0
VERTEX
 8
0
 10
272.794758
 20
119.933478
 30
0.0
 0
VERTEX
 8
0
 10
270.559758
 20
119.933478
 30
0.0
 0
SEQEND
 8
0
 0
POLYLINE
 8
0
 62
7
 66
 1
 10
0.0
 20
0.0
 30
0.0
 70
1
 0
VERTEX
 8
0
 10
238.594761
 20
137.053473
 30
0.0
 0
VERTEX
 8
0
 10
240.829762
 20
137.053473
 30
0.0
 0
VERTEX
 8
0
 10
240.829762
 20
121.785979
 30
0.0
 0
VERTEX
 8
0
 10
248.147259
 20
121.785979
 30
0.0
 0
VERTEX
 8
0
 10
248.147259
 20
119.933478
 30
0.0
 0
VERTEX
 8
0
 10
238.594761
 20
119.933478
 30
0.0
 0
SEQEND
 8
0
 0
POLYLINE
 8
0
 62
7
 66
 1
 10
0.0
 20
0.0
 30
0.0
 70
1
 0
VERTEX
 8
0
 10
212.689763
 20
139.918479
 30
0.0
 0
VERTEX
 8
0
 10
212.714772
 20
140.170981
 30
0.0
 0
VERTEX
 8
0
 10
212.784764
 20
140.405982
 30
0.0
 0
VERTEX
 8
0
 10
212.897267
 20
140.623481
 30
0.0
 0
VERTEX
 8
0
 10
213.047261
 20
140.810981
 30
0.0
 0
VERTEX
 8
0
 10
213.234761
 20
140.968482
 30
0.0
 0
VERTEX
 8
0
 10
213.449772
 20
141.085974
 30
0.0
 0
VERTEX
 8
0
 10
213.692265
 20
141.160971
 30
0.0
 0
VERTEX
 8
0
 10
213.959767
 20
141.188483
 30
0.0
 0
VERTEX
 8
0
 10
214.214772
 20
141.163474
 30
0.0
 0
VERTEX
 8
0
 10
214.449772
 20
141.090979
 30
0.0
 0
VERTEX
 8
0
 10
214.657261
 20
140.973471
 30
0.0
 0
VERTEX
 8
0
 10
214.834767
 20
140.820975
 30
0.0
 0
VERTEX
 8
0
 10
214.979771
 20
140.633475
 30
0.0
 0
VERTEX
 8
0
 10
215.087269
 20
140.418479
 30
0.0
 0
VERTEX
 8
0
 10
215.154759
 20
140.178473
 30
0.0
 0
VERTEX
 8
0
 10
215.177266
 20
139.918479
 30
0.0
 0
VERTEX
 8
0
 10
215.154759
 20
139.658484
 30
0.0
 0
VERTEX
 8
0
 10
215.089772
 20
139.415976
 30
0.0
 0
VERTEX
 8
0
 10
214.982258
 20
139.195975
 30
0.0
 0
VERTEX
 8
0
 10
214.837269
 20
139.005973
 30
0.0
 0
VERTEX
 8
0
 10
214.654759
 20
138.845984
 30
0.0
 0
VERTEX
 8
0
 10
214.437260
 20
138.725974
 30
0.0
 0
VERTEX
 8
0
 10
214.187260
 20
138.650977
 30
0.0
 0
VERTEX
 8
0
 10
213.907261
 20
138.623481
 30
0.0
 0
VERTEX
 8
0
 10
213.652272
 20
138.650977
 30
0.0
 0
VERTEX
 8
0
 10
213.417271
 20
138.725974
 30
0.0
 0
VERTEX
 8
0
 10
213.209767
 20
138.845984
 30
0.0
 0
VERTEX
 8
0
 10
213.032261
 20
139.005973
 30
0.0
 0
VERTEX
 8
0
 10
212.887272
 20
139.195975
 30
0.0
 0
VERTEX
 8
0
 10
212.779759
 20
139.415976
 30
0.0
 0
VERTEX
 8
0
 10
212.712269
 20
139.658484
 30
0.0
 0
SEQEND
 8
0
 0
POLYLINE
 8
0
 62
7
 66
 1
 10
0.0
 20
0.0
 30
0.0
 70
1
 0
VERTEX
 8
0
 10
207.989766
 20
139.918479
 30
0.0
 0
VERTEX
 8
0
 10
208.014760
 20
140.170981
 30
0.0
 0
VERTEX
 8
0
 10
208.084767
 20
140.405982
 30
0.0
 0
VERTEX
 8
0
 10
208.194768
 20
140.623481
 30
0.0
 0
VERTEX
 8
0
 10
208.344761
 20
140.810981
 30
0.0
 0
VERTEX
 8
0
 10
208.527272
 20
140.968482
 30
0.0
 0
VERTEX
 8
0
 10
208.739766
 20
141.085974
 30
0.0
 0
VERTEX
 8
0
 10
208.977269
 20
141.160971
 30
0.0
 0
VERTEX
 8
0
 10
209.234761
 20
141.188483
 30
0.0
 0
VERTEX
 8
0
 10
209.492268
 20
141.163474
 30
0.0
 0
VERTEX
 8
0
 10
209.724766
 20
141.090979
 30
0.0
 0
VERTEX
 8
0
 10
209.932271
 20
140.973471
 30
0.0
 0
VERTEX
 8
0
 10
210.109761
 20
140.820975
 30
0.0
 0
VERTEX
 8
0
 10
210.254765
 20
140.633475
 30
0.0
 0
VERTEX
 8
0
 10
210.364766
 20
140.418479
 30
0.0
 0
VERTEX
 8
0
 10
210.432271
 20
140.178473
 30
0.0
 0
VERTEX
 8
0
 10
210.454762
 20
139.918479
 30
0.0
 0
VERTEX
 8
0
 10
210.432271
 20
139.658484
 30
0.0
 0
VERTEX
 8
0
 10
210.367268
 20
139.415976
 30
0.0
 0
VERTEX
 8
0
 10
210.262272
 20
139.195975
 30
0.0
 0
VERTEX
 8
0
 10
210.117268
 20
139.005973
 30
0.0
 0
VERTEX
 8
0
 10
209.937260
 20
138.845984
 30
0.0
 0
VERTEX
 8
0
 10
209.724766
 20
138.725974
 30
0.0
 0
VERTEX
 8
0
 10
209.479771
 20
138.650977
 30
0.0
 0
VERTEX
 8
0
 10
209.207265
 20
138.623481
 30
0.0
 0
VERTEX
 8
0
 10
208.952260
 20
138.650977
 30
0.0
 0
VERTEX
 8
0
 10
208.717259
 20
138.725974
 30
0.0
 0
VERTEX
 8
0
 10
208.509770
 20
138.845984
 30
0.0
 0
VERTEX
 8
0
 10
208.332265
 20
139.005973
 30
0.0
 0
VERTEX
 8
0
 10
208.187260
 20
139.195975
 30
0.0
 0
VERTEX
 8
0
 10
208.079762
 20
139.415976
 30
0.0
 0
VERTEX
 8
0
 10
208.012272
 20
139.658484
 30
0.0
 0
SEQEND
 8
0
 0
POLYLINE
 8
0
 62
7
 66
 1
 10
0.0
 20
0.0
 30
0.0
 70
1
 0
VERTEX
 8
0
 10
173.662266
 20
119.933478
 30
0.0
 0
VERTEX
 8
0
 10
169.319768
 20
137.053473
 30
0.0
 0
VERTEX
 8
0
 10
171.654759
 20
137.053473
 30
0.0
 0
VERTEX
 8
0
 10
173.687260
 20
128.390982
 30
0.0
 0
VERTEX
 8
0
 10
174.057271
 20
126.798484
 30
0.0
 0
VERTEX
 8
0
 10
174.232274
 20
126.015982
 30
0.0
 0
VERTEX
 8
0
 10
174.399769
 20
125.250983
 30
0.0
 0
VERTEX
 8
0
 10
174.554768
 20
124.508483
 30
0.0
 0
VERTEX
 8
0
 10
174.702260
 20
123.793479
 30
0.0
 0
VERTEX
 8
0
 10
174.837269
 20
123.113478
 30
0.0
 0
VERTEX
 8
0
 10
174.957265
 20
122.473479
 30
0.0
 0
VERTEX
 8
0
 10
175.009770
 20
122.473479
 30
0.0
 0
VERTEX
 8
0
 10
175.124760
 20
123.125983
 30
0.0
 0
VERTEX
 8
0
 10
175.262272
 20
123.808478
 30
0.0
 0
VERTEX
 8
0
 10
175.419758
 20
124.518485
 30
0.0
 0
VERTEX
 8
0
 10
175.592259
 20
125.253478
 30
0.0
 0
VERTEX
 8
0
 10
175.782261
 20
126.013480
 30
0.0
 0
VERTEX
 8
0
 10
175.982258
 20
126.793479
 30
0.0
 0
VERTEX
 8
0
 10
176.189763
 20
127.595984
 30
0.0
 0
VERTEX
 8
0
 10
176.407261
 20
128.415984
 30
0.0
 0
VERTEX
 8
0
 10
178.692265
 20
137.053473
 30
0.0
 0
VERTEX
 8
0
 10
181.004765
 20
137.053473
 30
0.0
 0
VERTEX
 8
0
 10
183.087269
 20
128.365981
 30
0.0
 0
VERTEX
 8
0
 10
183.442265
 20
126.845984
 30
0.0
 0
VERTEX
 8
0
 10
183.769765
 20
125.345984
 30
0.0
 0
VERTEX
 8
0
 10
183.919758
 20
124.610984
 30
0.0
 0
VERTEX
 8
0
 10
184.054768
 20
123.890982
 30
0.0
 0
VERTEX
 8
0
 10
184.174763
 20
123.185981
 30
0.0
 0
VERTEX
 8
0
 10
184.279759
 20
122.498481
 30
0.0
 0
VERTEX
 8
0
 10
184.332265
 20
122.498481
 30
0.0
 0
VERTEX
 8
0
 10
184.622273
 20
123.915984
 30
0.0
 0
VERTEX
 8
0
 10
184.949772
 20
125.363478
 30
0.0
 0
VERTEX
 8
0
 10
185.127263
 20
126.100981
 30
0.0
 0
VERTEX
 8
0
 10
185.312260
 20
126.855979
 30
0.0
 0
VERTEX
 8
0
 10
185.504765
 20
127.625983
 30
0.0
 0
VERTEX
 8
0
 10
185.702260
 20
128.415984
 30
0.0
 0
VERTEX
 8
0
 10
187.964772
 20
137.053473
 30
0.0
 0
VERTEX
 8
0
 10
190.224766
 20
137.053473
 30
0.0
 0
VERTEX
 8
0
 10
185.372273
 20
119.933478
 30
0.0
 0
VERTEX
 8
0
 10
183.062260
 20
119.933478
 30
0.0
 0
VERTEX
 8
0
 10
180.902272
 20
128.848471
 30
0.0
 0
VERTEX
 8
0
 10
180.709767
 20
129.645972
 30
0.0
 0
VERTEX
 8
0
 10
180.534764
 20
130.400977
 30
0.0
 0
VERTEX
 8
0
 10
180.374760
 20
131.120978
 30
0.0
 0
VERTEX
 8
0
 10
180.229771
 20
131.815970
 30
0.0
 0
VERTEX
 8
0
 10
180.097264
 20
132.485984
 30
0.0
 0
VERTEX
 8
0
 10
179.979771
 20
133.143485
 30
0.0
 0
VERTEX
 8
0
 10
179.784764
 20
134.438483
 30
0.0
 0
VERTEX
 8
0
 10
179.734761
 20
134.438483
 30
0.0
 0
VERTEX
 8
0
 10
179.499760
 20
133.158484
 30
0.0
 0
VERTEX
 8
0
 10
179.359761
 20
132.503470
 30
0.0
 0
VERTEX
 8
0
 10
179.207265
 20
131.833472
 30
0.0
 0
VERTEX
 8
0
 10
179.034764
 20
131.138480
 30
0.0
 0
VERTEX
 8
0
 10
178.847264
 20
130.415976
 30
0.0
 0
VERTEX
 8
0
 10
178.639760
 20
129.653479
 30
0.0
 0
VERTEX
 8
0
 10
178.412266
 20
128.848471
 30
0.0
 0
VERTEX
 8
0
 10
175.974766
 20
119.933478
 30
0.0
 0
SEQEND
 8
0
 0
POLYLINE
 8
0
 62
7
 66
 1
 10
0.0
 20
0.0
 30
0.0
 70
1
 0
VERTEX
 8
0
 10
141.724766
 20
121.228484
 30
0.0
 0
VERTEX
 8
0
 10
151.199772
 20
135.123481
 30
0.0
 0
VERTEX
 8
0
 10
151.199772
 20
135.198478
 30
0.0
 0
VERTEX
 8
0
 10
142.537266
 20
135.198478
 30
0.0
 0
VERTEX
 8
0
 10
142.537266
 20
137.053473
 30
0.0
 0
VERTEX
 8
0
 10
154.094761
 20
137.053473
 30
0.0
 0
VERTEX
 8
0
 10
154.094761
 20
135.705985
 30
0.0
 0
VERTEX
 8
0
 10
144.644765
 20
121.863478
 30
0.0
 0
VERTEX
 8
0
 10
144.644765
 20
121.785979
 30
0.0
 0
VERTEX
 8
0
 10
154.222264
 20
121.785979
 30
0.0
 0
VERTEX
 8
0
 10
154.222264
 20
119.933478
 30
0.0
 0
VERTEX
 8
0
 10
141.724766
 20
119.933478
 30
0.0
 0
SEQEND
 8
0
 0
POLYLINE
 8
0
 62
7
 66
 1
 10
0.0
 20
0.0
 30
0.0
 70
1
 0
VERTEX
 8
0
 10
109.747288
 20
119.933478
 30
0.0
 0
VERTEX
 8
0
 10
109.747288
 20
137.053473
 30
0.0
 0
VERTEX
 8
0
 10
112.184773
 20
137.053473
 30
0.0
 0
VERTEX
 8
0
 10
117.647267
 20
128.390982
 30
0.0
 0
VERTEX
 8
0
 10
118.102269
 20
127.648482
 30
0.0
 0
VERTEX
 8
0
 10
118.537266
 20
126.920981
 30
0.0
 0
VERTEX
 8
0
 10
118.949772
 20
126.210982
 30
0.0
 0
VERTEX
 8
0
 10
119.342274
 20
125.513480
 30
0.0
 0
VERTEX
 8
0
 10
119.712269
 20
124.828482
 30
0.0
 0
VERTEX
 8
0
 10
120.062260
 20
124.153479
 30
0.0
 0
VERTEX
 8
0
 10
120.389775
 20
123.488478
 30
0.0
 0
VERTEX
 8
0
 10
120.694768
 20
122.828482
 30
0.0
 0
VERTEX
 8
0
 10
120.772267
 20
122.853484
 30
0.0
 0
VERTEX
 8
0
 10
120.702260
 20
123.703482
 30
0.0
 0
VERTEX
 8
0
 10
120.644765
 20
124.540984
 30
0.0
 0
VERTEX
 8
0
 10
120.602269
 20
125.380980
 30
0.0
 0
VERTEX
 8
0
 10
120.567265
 20
126.228484
 30
0.0
 0
VERTEX
 8
0
 10
120.544774
 20
127.093482
 30
0.0
 0
VERTEX
 8
0
 10
120.527272
 20
127.988478
 30
0.0
 0
VERTEX
 8
0
 10
120.519765
 20
128.915976
 30
0.0
 0
VERTEX
 8
0
 10
120.517262
 20
129.890982
 30
0.0
 0
VERTEX
 8
0
 10
120.517262
 20
137.053473
 30
0.0
 0
VERTEX
 8
0
 10
122.599766
 20
137.053473
 30
0.0
 0
VERTEX
 8
0
 10
122.599766
 20
119.933478
 30
0.0
 0
VERTEX
 8
0
 10
120.364766
 20
119.933478
 30
0.0
 0
VERTEX
 8
0
 10
114.929768
 20
128.620978
 30
0.0
 0
VERTEX
 8
0
 10
114.047261
 20
130.055976
 30
0.0
 0
VERTEX
 8
0
 10
113.619771
 20
130.778479
 30
0.0
 0
VERTEX
 8
0
 10
113.207265
 20
131.498481
 30
0.0
 0
VERTEX
 8
0
 10
112.812260
 20
132.215979
 30
0.0
 0
VERTEX
 8
0
 10
112.437260
 20
132.928473
 30
0.0
 0
VERTEX
 8
0
 10
112.082265
 20
133.635978
 30
0.0
 0
VERTEX
 8
0
 10
111.754765
 20
134.335974
 30
0.0
 0
VERTEX
 8
0
 10
111.677266
 20
134.308478
 30
0.0
 0
VERTEX
 8
0
 10
111.754765
 20
132.695975
 30
0.0
 0
VERTEX
 8
0
 10
111.782261
 20
131.875983
 30
0.0
 0
VERTEX
 8
0
 10
111.802266
 20
131.035971
 30
0.0
 0
VERTEX
 8
0
 10
111.814763
 20
130.163474
 30
0.0
 0
VERTEX
 8
0
 10
111.824772
 20
129.248481
 30
0.0
 0
VERTEX
 8
0
 10
111.827275
 20
128.770972
 30
0.0
 0
VERTEX
 8
0
 10
111.827275
 20
128.280982
 30
0.0
 0
VERTEX
 8
0
 10
111.829762
 20
127.773482
 30
0.0
 0
VERTEX
 8
0
 10
111.829762
 20
127.248481
 30
0.0
 0
VERTEX
 8
0
 10
111.829762
 20
119.933478
 30
0.0
 0
SEQEND
 8
0
 0
POLYLINE
 8
0
 62
7
 66
 1
 10
0.0
 20
0.0
 30
0.0
 70
1
 0
VERTEX
 8
0
 10
88.412266
 20
127.958480
 30
0.0
 0
VERTEX
 8
0
 10
81.782261
 20
127.958480
 30
0.0
 0
VERTEX
 8
0
 10
81.782261
 20
121.785979
 30
0.0
 0
VERTEX
 8
0
 10
89.199772
 20
121.785979
 30
0.0
 0
VERTEX
 8
0
 10
89.199772
 20
119.933478
 30
0.0
 0
VERTEX
 8
0
 10
79.547276
 20
119.933478
 30
0.0
 0
VERTEX
 8
0
 10
79.547276
 20
137.053473
 30
0.0
 0
VERTEX
 8
0
 10
88.819768
 20
137.053473
 30
0.0
 0
VERTEX
 8
0
 10
88.819768
 20
135.198478
 30
0.0
 0
VERTEX
 8
0
 10
81.782261
 20
135.198478
 30
0.0
 0
VERTEX
 8
0
 10
81.782261
 20
129.788474
 30
0.0
 0
VERTEX
 8
0
 10
88.412266
 20
129.788474
 30
0.0
 0
SEQEND
 8
0
 0
POLYLINE
 8
0
 62
7
 66
 1
 10
0.0
 20
0.0
 30
0.0
 70
1
 0
VERTEX
 8
0
 10
24.814763
 20
127.958480
 30
0.0
 0
VERTEX
 8
0
 10
18.184788
 20
127.958480
 30
0.0
 0
VERTEX
 8
0
 10
18.184788
 20
121.785979
 30
0.0
 0
VERTEX
 8
0
 10
25.602269
 20
121.785979
 30
0.0
 0
VERTEX
 8
0
 10
25.602269
 20
119.933478
 30
0.0
 0
VERTEX
 8
0
 10
15.949772
 20
119.933478
 30
0.0
 0
VERTEX
 8
0
 10
15.949772
 20
137.053473
 30
0.0
 0
VERTEX
 8
0
 10
25.222264
 20
137.053473
 30
0.0
 0
VERTEX
 8
0
 10
25.222264
 20
135.198478
 30
0.0
 0
VERTEX
 8
0
 10
18.184788
 20
135.198478
 30
0.0
 0
VERTEX
 8
0
 10
18.184788
 20
129.788474
 30
0.0
 0
VERTEX
 8
0
 10
24.814763
 20
129.788474
 30
0.0
 0
SEQEND
 8
0
 0
POLYLINE
 8
0
 62
7
 66
 1
 10
0.0
 20
0.0
 30
0.0
 70
1
 0
VERTEX
 8
0
 10
-9.905208
 20
119.933478
 30
0.0
 0
VERTEX
 8
0
 10
-12.140224
 20
119.933478
 30
0.0
 0
VERTEX
 8
0
 10
-12.140224
 20
137.053473
 30
0.0
 0
VERTEX
 8
0
 10
-9.905208
 20
137.053473
 30
0.0
 0
SEQEND
 8
0
 0
POLYLINE
 8
0
 62
7
 66
 1
 10
0.0
 20
0.0
 30
0.0
 70
1
 0
VERTEX
 8
0
 10
-47.407710
 20
122.625983
 30
0.0
 0
VERTEX
 8
0
 10
-47.017726
 20
122.395980
 30
0.0
 0
VERTEX
 8
0
 10
-46.590236
 20
122.183478
 30
0.0
 0
VERTEX
 8
0
 10
-46.127712
 20
121.993483
 30
0.0
 0
VERTEX
 8
0
 10
-45.640224
 20
121.828482
 30
0.0
 0
VERTEX
 8
0
 10
-45.125209
 20
121.693480
 30
0.0
 0
VERTEX
 8
0
 10
-44.590236
 20
121.590979
 30
0.0
 0
VERTEX
 8
0
 10
-44.037715
 20
121.528479
 30
0.0
 0
VERTEX
 8
0
 10
-43.470210
 20
121.505980
 30
0.0
 0
VERTEX
 8
0
 10
-43.057735
 20
121.520980
 30
0.0
 0
VERTEX
 8
0
 10
-42.667720
 20
121.560981
 30
0.0
 0
VERTEX
 8
0
 10
-42.300228
 20
121.628478
 30
0.0
 0
VERTEX
 8
0
 10
-41.957729
 20
121.718482
 30
0.0
 0
VERTEX
 8
0
 10
-41.637721
 20
121.835982
 30
0.0
 0
VERTEX
 8
0
 10
-41.342708
 20
121.975981
 30
0.0
 0
VERTEX
 8
0
 10
-41.075221
 20
122.135985
 30
0.0
 0
VERTEX
 8
0
 10
-40.830226
 20
122.318480
 30
0.0
 0
VERTEX
 8
0
 10
-40.615230
 20
122.523482
 30
0.0
 0
VERTEX
 8
0
 10
-40.425228
 20
122.743483
 30
0.0
 0
VERTEX
 8
0
 10
-40.262721
 20
122.985984
 30
0.0
 0
VERTEX
 8
0
 10
-40.130214
 20
123.243483
 30
0.0
 0
VERTEX
 8
0
 10
-40.025234
 20
123.518485
 30
0.0
 0
VERTEX
 8
0
 10
-39.947719
 20
123.805983
 30
0.0
 0
VERTEX
 8
0
 10
-39.902736
 20
124.110984
 30
0.0
 0
VERTEX
 8
0
 10
-39.887721
 20
124.428481
 30
0.0
 0
VERTEX
 8
0
 10
-39.897731
 20
124.715979
 30
0.0
 0
VERTEX
 8
0
 10
-39.932735
 20
124.990981
 30
0.0
 0
VERTEX
 8
0
 10
-39.987728
 20
125.250983
 30
0.0
 0
VERTEX
 8
0
 10
-40.067714
 20
125.498481
 30
0.0
 0
VERTEX
 8
0
 10
-40.170223
 20
125.735984
 30
0.0
 0
VERTEX
 8
0
 10
-40.300228
 20
125.960982
 30
0.0
 0
VERTEX
 8
0
 10
-40.452724
 20
126.178481
 30
0.0
 0
VERTEX
 8
0
 10
-40.635219
 20
126.383483
 30
0.0
 0
VERTEX
 8
0
 10
-40.842708
 20
126.583480
 30
0.0
 0
VERTEX
 8
0
 10
-41.077724
 20
126.773482
 30
0.0
 0
VERTEX
 8
0
 10
-41.342708
 20
126.958480
 30
0.0
 0
VERTEX
 8
0
 10
-41.635219
 20
127.135978
 30
0.0
 0
VERTEX
 8
0
 10
-41.957729
 20
127.308478
 30
0.0
 0
VERTEX
 8
0
 10
-42.312709
 20
127.478484
 30
0.0
 0
VERTEX
 8
0
 10
-42.697719
 20
127.643485
 30
0.0
 0
VERTEX
 8
0
 10
-43.115230
 20
127.805983
 30
0.0
 0
VERTEX
 8
0
 10
-43.627712
 20
128.000983
 30
0.0
 0
VERTEX
 8
0
 10
-44.112728
 20
128.210982
 30
0.0
 0
VERTEX
 8
0
 10
-44.570217
 20
128.428481
 30
0.0
 0
VERTEX
 8
0
 10
-45.000209
 20
128.660979
 30
0.0
 0
VERTEX
 8
0
 10
-45.402736
 20
128.905982
 30
0.0
 0
VERTEX
 8
0
 10
-45.772731
 20
129.165976
 30
0.0
 0
VERTEX
 8
0
 10
-46.115230
 20
129.440970
 30
0.0
 0
VERTEX
 8
0
 10
-46.422725
 20
129.730979
 30
0.0
 0
VERTEX
 8
0
 10
-46.700221
 20
130.035971
 30
0.0
 0
VERTEX
 8
0
 10
-46.942714
 20
130.358481
 30
0.0
 0
VERTEX
 8
0
 10
-47.150234
 20
130.698478
 30
0.0
 0
VERTEX
 8
0
 10
-47.322719
 20
131.058478
 30
0.0
 0
VERTEX
 8
0
 10
-47.457729
 20
131.433478
 30
0.0
 0
VERTEX
 8
0
 10
-47.555232
 20
131.830985
 30
0.0
 0
VERTEX
 8
0
 10
-47.615230
 20
132.245978
 30
0.0
 0
VERTEX
 8
0
 10
-47.635219
 20
132.683478
 30
0.0
 0
VERTEX
 8
0
 10
-47.610225
 20
133.175971
 30
0.0
 0
VERTEX
 8
0
 10
-47.532710
 20
133.648474
 30
0.0
 0
VERTEX
 8
0
 10
-47.410213
 20
134.103476
 30
0.0
 0
VERTEX
 8
0
 10
-47.237728
 20
134.535971
 30
0.0
 0
VERTEX
 8
0
 10
-47.020229
 20
134.943473
 30
0.0
 0
VERTEX
 8
0
 10
-46.760219
 20
135.325980
 30
0.0
 0
VERTEX
 8
0
 10
-46.457729
 20
135.683478
 30
0.0
 0
VERTEX
 8
0
 10
-46.115230
 20
136.008475
 30
0.0
 0
VERTEX
 8
0
 10
-45.732723
 20
136.303473
 30
0.0
 0
VERTEX
 8
0
 10
-45.312709
 20
136.565970
 30
0.0
 0
VERTEX
 8
0
 10
-44.857723
 20
136.793479
 30
0.0
 0
VERTEX
 8
0
 10
-44.367732
 20
136.980979
 30
0.0
 0
VERTEX
 8
0
 10
-43.845210
 20
137.133475
 30
0.0
 0
VERTEX
 8
0
 10
-43.290218
 20
137.243476
 30
0.0
 0
VERTEX
 8
0
 10
-42.707729
 20
137.310981
 30
0.0
 0
VERTEX
 8
0
 10
-42.097713
 20
137.333472
 30
0.0
 0
VERTEX
 8
0
 10
-41.470210
 20
137.315970
 30
0.0
 0
VERTEX
 8
0
 10
-40.885219
 20
137.263480
 30
0.0
 0
VERTEX
 8
0
 10
-40.342708
 20
137.180976
 30
0.0
 0
VERTEX
 8
0
 10
-39.847713
 20
137.075980
 30
0.0
 0
VERTEX
 8
0
 10
-39.395229
 20
136.950980
 30
0.0
 0
VERTEX
 8
0
 10
-38.992732
 20
136.808478
 30
0.0
 0
VERTEX
 8
0
 10
-38.640224
 20
136.655982
 30
0.0
 0
VERTEX
 8
0
 10
-38.337734
 20
136.495978
 30
0.0
 0
VERTEX
 8
0
 10
-38.947719
 20
134.690970
 30
0.0
 0
VERTEX
 8
0
 10
-39.175228
 20
134.820975
 30
0.0
 0
VERTEX
 8
0
 10
-39.460231
 20
134.955985
 30
0.0
 0
VERTEX
 8
0
 10
-39.795223
 20
135.093482
 30
0.0
 0
VERTEX
 8
0
 10
-40.180232
 20
135.220984
 30
0.0
 0
VERTEX
 8
0
 10
-40.612728
 20
135.333472
 30
0.0
 0
VERTEX
 8
0
 10
-41.092708
 20
135.423484
 30
0.0
 0
VERTEX
 8
0
 10
-41.612728
 20
135.480979
 30
0.0
 0
VERTEX
 8
0
 10
-42.175228
 20
135.503470
 30
0.0
 0
VERTEX
 8
0
 10
-42.597713
 20
135.488471
 30
0.0
 0
VERTEX
 8
0
 10
-42.985225
 20
135.440970
 30
0.0
 0
VERTEX
 8
0
 10
-43.340236
 20
135.365973
 30
0.0
 0
VERTEX
 8
0
 10
-43.665218
 20
135.265982
 30
0.0
 0
VERTEX
 8
0
 10
-43.960231
 20
135.143485
 30
0.0
 0
VERTEX
 8
0
 10
-44.222713
 20
135.000983
 30
0.0
 0
VERTEX
 8
0
 10
-44.457729
 20
134.838477
 30
0.0
 0
VERTEX
 8
0
 10
-44.665218
 20
134.658484
 30
0.0
 0
VERTEX
 8
0
 10
-44.842708
 20
134.465979
 30
0.0
 0
VERTEX
 8
0
 10
-44.995235
 20
134.263480
 30
0.0
 0
VERTEX
 8
0
 10
-45.122707
 20
134.050971
 30
0.0
 0
VERTEX
 8
0
 10
-45.225215
 20
133.830985
 30
0.0
 0
VERTEX
 8
0
 10
-45.302730
 20
133.608481
 30
0.0
 0
VERTEX
 8
0
 10
-45.357723
 20
133.383475
 30
0.0
 0
VERTEX
 8
0
 10
-45.390224
 20
133.158484
 30
0.0
 0
VERTEX
 8
0
 10
-45.400234
 20
132.938483
 30
0.0
 0
VERTEX
 8
0
 10
-45.387721
 20
132.648474
 30
0.0
 0
VERTEX
 8
0
 10
-45.350215
 20
132.375983
 30
0.0
 0
VERTEX
 8
0
 10
-45.287715
 20
132.118476
 30
0.0
 0
VERTEX
 8
0
 10
-45.200221
 20
131.875983
 30
0.0
 0
VERTEX
 8
0
 10
-45.087734
 20
131.648474
 30
0.0
 0
VERTEX
 8
0
 10
-44.947719
 20
131.430976
 30
0.0
 0
VERTEX
 8
0
 10
-44.780208
 20
131.225974
 30
0.0
 0
VERTEX
 8
0
 10
-44.585231
 20
131.030982
 30
0.0
 0
VERTEX
 8
0
 10
-44.362728
 20
130.843482
 30
0.0
 0
VERTEX
 8
0
 10
-44.112728
 20
130.660971
 30
0.0
 0
VERTEX
 8
0
 10
-43.832729
 20
130.485984
 30
0.0
 0
VERTEX
 8
0
 10
-43.525234
 20
130.313483
 30
0.0
 0
VERTEX
 8
0
 10
-43.190212
 20
130.143485
 30
0.0
 0
VERTEX
 8
0
 10
-42.822719
 20
129.975974
 30
0.0
 0
VERTEX
 8
0
 10
-42.425228
 20
129.805976
 30
0.0
 0
VERTEX
 8
0
 10
-41.997707
 20
129.635978
 30
0.0
 0
VERTEX
 8
0
 10
-41.470210
 20
129.423484
 30
0.0
 0
VERTEX
 8
0
 10
-40.980220
 20
129.200980
 30
0.0
 0
VERTEX
 8
0
 10
-40.520229
 20
128.973471
 30
0.0
 0
VERTEX
 8
0
 10
-40.095210
 20
128.733481
 30
0.0
 0
VERTEX
 8
0
 10
-39.705226
 20
128.480979
 30
0.0
 0
VERTEX
 8
0
 10
-39.350215
 20
128.215979
 30
0.0
 0
VERTEX
 8
0
 10
-39.027736
 20
127.938483
 30
0.0
 0
VERTEX
 8
0
 10
-38.737728
 20
127.645980
 30
0.0
 0
VERTEX
 8
0
 10
-38.485225
 20
127.335982
 30
0.0
 0
VERTEX
 8
0
 10
-38.262721
 20
127.008483
 30
0.0
 0
VERTEX
 8
0
 10
-38.077724
 20
126.660979
 30
0.0
 0
VERTEX
 8
0
 10
-37.925228
 20
126.295981
 30
0.0
 0
VERTEX
 8
0
 10
-37.805232
 20
125.908484
 30
0.0
 0
VERTEX
 8
0
 10
-37.720210
 20
125.498481
 30
0.0
 0
VERTEX
 8
0
 10
-37.670223
 20
125.063483
 30
0.0
 0
VERTEX
 8
0
 10
-37.652736
 20
124.605979
 30
0.0
 0
VERTEX
 8
0
 10
-37.675228
 20
124.115981
 30
0.0
 0
VERTEX
 8
0
 10
-37.742732
 20
123.633483
 30
0.0
 0
VERTEX
 8
0
 10
-37.857723
 20
123.168479
 30
0.0
 0
VERTEX
 8
0
 10
-38.017726
 20
122.718482
 30
0.0
 0
VERTEX
 8
0
 10
-38.222713
 20
122.285979
 30
0.0
 0
VERTEX
 8
0
 10
-38.475215
 20
121.878478
 30
0.0
 0
VERTEX
 8
0
 10
-38.775234
 20
121.493483
 30
0.0
 0
VERTEX
 8
0
 10
-39.122707
 20
121.138480
 30
0.0
 0
VERTEX
 8
0
 10
-39.517726
 20
120.813483
 30
0.0
 0
VERTEX
 8
0
 10
-39.957729
 20
120.523482
 30
0.0
 0
VERTEX
 8
0
 10
-40.447719
 20
120.270980
 30
0.0
 0
VERTEX
 8
0
 10
-40.985225
 20
120.055983
 30
0.0
 0
VERTEX
 8
0
 10
-41.572719
 20
119.883483
 30
0.0
 0
VERTEX
 8
0
 10
-42.205226
 20
119.758483
 30
0.0
 0
VERTEX
 8
0
 10
-42.890224
 20
119.680983
 30
0.0
 0
VERTEX
 8
0
 10
-43.622707
 20
119.653479
 30
0.0
 0
VERTEX
 8
0
 10
-44.247707
 20
119.675978
 30
0.0
 0
VERTEX
 8
0
 10
-44.872707
 20
119.743483
 30
0.0
 0
VERTEX
 8
0
 10
-45.490230
 20
119.845984
 30
0.0
 0
VERTEX
 8
0
 10
-46.082729
 20
119.983481
 30
0.0
 0
VERTEX
 8
0
 10
-46.642726
 20
120.148482
 30
0.0
 0
VERTEX
 8
0
 10
-47.155208
 20
120.338485
 30
0.0
 0
VERTEX
 8
0
 10
-47.390224
 20
120.440978
 30
0.0
 0
VERTEX
 8
0
 10
-47.610225
 20
120.548484
 30
0.0
 0
VERTEX
 8
0
 10
-47.810207
 20
120.658484
 30
0.0
 0
VERTEX
 8
0
 10
-47.992732
 20
120.770980
 30
0.0
 0
SEQEND
 8
0
 0
POLYLINE
 8
0
 62
7
 66
 1
 10
0.0
 20
0.0
 30
0.0
 70
1
 0
VERTEX
 8
0
 10
274.072262
 20
170.198478
 30
0.0
 0
VERTEX
 8
0
 10
268.864758
 20
170.198478
 30
0.0
 0
VERTEX
 8
0
 10
268.864758
 20
172.080970
 30
0.0
 0
VERTEX
 8
0
 10
281.539761
 20
172.080970
 30
0.0
 0
VERTEX
 8
0
 10
281.539761
 20
170.198478
 30
0.0
 0
VERTEX
 8
0
 10
276.307263
 20
170.198478
 30
0.0
 0
VERTEX
 8
0
 10
276.307263
 20
154.958472
 30
0.0
 0
VERTEX
 8
0
 10
274.072262
 20
154.958472
 30
0.0
 0
SEQEND
 8
0
 0
POLYLINE
 8
0
 62
7
 66
 1
 10
0.0
 20
0.0
 30
0.0
 70
1
 0
VERTEX
 8
0
 10
239.252263
 20
172.080970
 30
0.0
 0
VERTEX
 8
0
 10
239.252263
 20
164.915976
 30
0.0
 0
VERTEX
 8
0
 10
247.532261
 20
164.915976
 30
0.0
 0
VERTEX
 8
0
 10
247.532261
 20
172.080970
 30
0.0
 0
VERTEX
 8
0
 10
249.769757
 20
172.080970
 30
0.0
 0
VERTEX
 8
0
 10
249.769757
 20
154.958472
 30
0.0
 0
VERTEX
 8
0
 10
247.532261
 20
154.958472
 30
0.0
 0
VERTEX
 8
0
 10
247.532261
 20
162.985984
 30
0.0
 0
VERTEX
 8
0
 10
239.252263
 20
162.985984
 30
0.0
 0
VERTEX
 8
0
 10
239.252263
 20
154.958472
 30
0.0
 0
VERTEX
 8
0
 10
237.017262
 20
154.958472
 30
0.0
 0
VERTEX
 8
0
 10
237.017262
 20
172.080970
 30
0.0
 0
SEQEND
 8
0
 0
POLYLINE
 8
0
 62
7
 66
 1
 10
0.0
 20
0.0
 30
0.0
 70
1
 0
VERTEX
 8
0
 10
218.037266
 20
155.490973
 30
0.0
 0
VERTEX
 8
0
 10
217.879765
 20
155.415976
 30
0.0
 0
VERTEX
 8
0
 10
217.702260
 20
155.340979
 30
0.0
 0
VERTEX
 8
0
 10
217.504765
 20
155.265982
 30
0.0
 0
VERTEX
 8
0
 10
217.292271
 20
155.193473
 30
0.0
 0
VERTEX
 8
0
 10
217.059758
 20
155.123481
 30
0.0
 0
VERTEX
 8
0
 10
216.809758
 20
155.055976
 30
0.0
 0
VERTEX
 8
0
 10
216.542271
 20
154.993476
 30
0.0
 0
VERTEX
 8
0
 10
216.262272
 20
154.933478
 30
0.0
 0
VERTEX
 8
0
 10
215.964772
 20
154.878470
 30
0.0
 0
VERTEX
 8
0
 10
215.652272
 20
154.828482
 30
0.0
 0
VERTEX
 8
0
 10
214.989766
 20
154.748481
 30
0.0
 0
VERTEX
 8
0
 10
214.274769
 20
154.695975
 30
0.0
 0
VERTEX
 8
0
 10
213.514760
 20
154.678473
 30
0.0
 0
VERTEX
 8
0
 10
213.064763
 20
154.688483
 30
0.0
 0
VERTEX
 8
0
 10
212.624760
 20
154.713477
 30
0.0
 0
VERTEX
 8
0
 10
212.192265
 20
154.758475
 30
0.0
 0
VERTEX
 8
0
 10
211.767262
 20
154.820975
 30
0.0
 0
VERTEX
 8
0
 10
211.349766
 20
154.900977
 30
0.0
 0
VERTEX
 8
0
 10
210.944768
 20
154.995978
 30
0.0
 0
VERTEX
 8
0
 10
210.547261
 20
155.110984
 30
0.0
 0
VERTEX
 8
0
 10
210.159764
 20
155.243476
 30
0.0
 0
VERTEX
 8
0
 10
209.784764
 20
155.390982
 30
0.0
 0
VERTEX
 8
0
 10
209.419758
 20
155.558478
 30
0.0
 0
VERTEX
 8
0
 10
209.067265
 20
155.740973
 30
0.0
 0
VERTEX
 8
0
 10
208.724766
 20
155.940970
 30
0.0
 0
VERTEX
 8
0
 10
208.397267
 20
156.158484
 30
0.0
 0
VERTEX
 8
0
 10
208.079762
 20
156.390982
 30
0.0
 0
VERTEX
 8
0
 10
207.777272
 20
156.640982
 30
0.0
 0
VERTEX
 8
0
 10
207.487263
 20
156.908484
 30
0.0
 0
VERTEX
 8
0
 10
207.212269
 20
157.190970
 30
0.0
 0
VERTEX
 8
0
 10
206.952260
 20
157.490973
 30
0.0
 0
VERTEX
 8
0
 10
206.707265
 20
157.805976
 30
0.0
 0
VERTEX
 8
0
 10
206.477269
 20
158.138480
 30
0.0
 0
VERTEX
 8
0
 10
206.264760
 20
158.488471
 30
0.0
 0
VERTEX
 8
0
 10
206.064763
 20
158.853476
 30
0.0
 0
VERTEX
 8
0
 10
205.884770
 20
159.233481
 30
0.0
 0
VERTEX
 8
0
 10
205.722264
 20
159.630973
 30
0.0
 0
VERTEX
 8
0
 10
205.574772
 20
160.043479
 30
0.0
 0
VERTEX
 8
0
 10
205.447270
 20
160.470984
 30
0.0
 0
VERTEX
 8
0
 10
205.337269
 20
160.913474
 30
0.0
 0
VERTEX
 8
0
 10
205.247258
 20
161.373481
 30
0.0
 0
VERTEX
 8
0
 10
205.174763
 20
161.848471
 30
0.0
 0
VERTEX
 8
0
 10
205.124760
 20
162.338477
 30
0.0
 0
VERTEX
 8
0
 10
205.094761
 20
162.843482
 30
0.0
 0
VERTEX
 8
0
 10
205.082265
 20
163.365973
 30
0.0
 0
VERTEX
 8
0
 10
205.092259
 20
163.865973
 30
0.0
 0
VERTEX
 8
0
 10
205.124760
 20
164.353476
 30
0.0
 0
VERTEX
 8
0
 10
205.177266
 20
164.830970
 30
0.0
 0
VERTEX
 8
0
 10
205.249760
 20
165.298484
 30
0.0
 0
VERTEX
 8
0
 10
205.339772
 20
165.753470
 30
0.0
 0
VERTEX
 8
0
 10
205.452260
 20
166.195975
 30
0.0
 0
VERTEX
 8
0
 10
205.582265
 20
166.625983
 30
0.0
 0
VERTEX
 8
0
 10
205.732258
 20
167.043479
 30
0.0
 0
VERTEX
 8
0
 10
205.899769
 20
167.445975
 30
0.0
 0
VERTEX
 8
0
 10
206.087269
 20
167.838477
 30
0.0
 0
VERTEX
 8
0
 10
206.289769
 20
168.215979
 30
0.0
 0
VERTEX
 8
0
 10
206.512272
 20
168.578482
 30
0.0
 0
VERTEX
 8
0
 10
206.749760
 20
168.925971
 30
0.0
 0
VERTEX
 8
0
 10
207.004765
 20
169.260978
 30
0.0
 0
VERTEX
 8
0
 10
207.274769
 20
169.578482
 30
0.0
 0
VERTEX
 8
0
 10
207.562260
 20
169.880973
 30
0.0
 0
VERTEX
 8
0
 10
207.864766
 20
170.168479
 30
0.0
 0
VERTEX
 8
0
 10
208.182271
 20
170.440970
 30
0.0
 0
VERTEX
 8
0
 10
208.514760
 20
170.695975
 30
0.0
 0
VERTEX
 8
0
 10
208.862263
 20
170.933478
 30
0.0
 0
VERTEX
 8
0
 10
209.222264
 20
171.153479
 30
0.0
 0
VERTEX
 8
0
 10
209.597264
 20
171.358481
 30
0.0
 0
VERTEX
 8
0
 10
209.984761
 20
171.543479
 30
0.0
 0
VERTEX
 8
0
 10
210.387272
 20
171.710974
 30
0.0
 0
VERTEX
 8
0
 10
210.799763
 20
171.860984
 30
0.0
 0
VERTEX
 8
0
 10
211.227269
 20
171.990973
 30
0.0
 0
VERTEX
 8
0
 10
211.664769
 20
172.100974
 30
0.0
 0
VERTEX
 8
0
 10
212.114766
 20
172.193473
 30
0.0
 0
VERTEX
 8
0
 10
212.574772
 20
172.265982
 30
0.0
 0
VERTEX
 8
0
 10
213.047261
 20
172.315970
 30
0.0
 0
VERTEX
 8
0
 10
213.529759
 20
172.348471
 30
0.0
 0
VERTEX
 8
0
 10
214.022267
 20
172.358481
 30
0.0
 0
VERTEX
 8
0
 10
214.409764
 20
172.353476
 30
0.0
 0
VERTEX
 8
0
 10
214.779759
 20
172.338477
 30
0.0
 0
VERTEX
 8
0
 10
215.129765
 20
172.313483
 30
0.0
 0
VERTEX
 8
0
 10
215.464772
 20
172.283469
 30
0.0
 0
VERTEX
 8
0
 10
215.782261
 20
172.243476
 30
0.0
 0
VERTEX
 8
0
 10
216.082265
 20
172.198478
 30
0.0
 0
VERTEX
 8
0
 10
216.362263
 20
172.145972
 30
0.0
 0
VERTEX
 8
0
 10
216.627263
 20
172.090979
 30
0.0
 0
VERTEX
 8
0
 10
216.872258
 20
172.033469
 30
0.0
 0
VERTEX
 8
0
 10
217.099766
 20
171.970969
 30
0.0
 0
VERTEX
 8
0
 10
217.309758
 20
171.908469
 30
0.0
 0
VERTEX
 8
0
 10
217.502263
 20
171.843482
 30
0.0
 0
VERTEX
 8
0
 10
217.674763
 20
171.778479
 30
0.0
 0
VERTEX
 8
0
 10
217.832265
 20
171.715979
 30
0.0
 0
VERTEX
 8
0
 10
217.967259
 20
171.655982
 30
0.0
 0
VERTEX
 8
0
 10
218.087269
 20
171.595969
 30
0.0
 0
VERTEX
 8
0
 10
217.527272
 20
169.793479
 30
0.0
 0
VERTEX
 8
0
 10
217.204762
 20
169.940970
 30
0.0
 0
VERTEX
 8
0
 10
216.849766
 20
170.075980
 30
0.0
 0
VERTEX
 8
0
 10
216.462269
 20
170.195975
 30
0.0
 0
VERTEX
 8
0
 10
216.042271
 20
170.300971
 30
0.0
 0
VERTEX
 8
0
 10
215.594761
 20
170.385978
 30
0.0
 0
VERTEX
 8
0
 10
215.122258
 20
170.448478
 30
0.0
 0
VERTEX
 8
0
 10
214.622258
 20
170.488471
 30
0.0
 0
VERTEX
 8
0
 10
214.099766
 20
170.503470
 30
0.0
 0
VERTEX
 8
0
 10
213.727269
 20
170.495978
 30
0.0
 0
VERTEX
 8
0
 10
213.362263
 20
170.473471
 30
0.0
 0
VERTEX
 8
0
 10
212.659764
 20
170.383475
 30
0.0
 0
VERTEX
 8
0
 10
211.992268
 20
170.235984
 30
0.0
 0
VERTEX
 8
0
 10
211.362263
 20
170.033469
 30
0.0
 0
VERTEX
 8
0
 10
210.769765
 20
169.770972
 30
0.0
 0
VERTEX
 8
0
 10
210.219761
 20
169.455970
 30
0.0
 0
VERTEX
 8
0
 10
209.714772
 20
169.083472
 30
0.0
 0
VERTEX
 8
0
 10
209.252263
 20
168.658469
 30
0.0
 0
VERTEX
 8
0
 10
208.837269
 20
168.180976
 30
0.0
 0
VERTEX
 8
0
 10
208.472264
 20
167.653479
 30
0.0
 0
VERTEX
 8
0
 10
208.157261
 20
167.073478
 30
0.0
 0
VERTEX
 8
0
 10
207.897267
 20
166.443473
 30
0.0
 0
VERTEX
 8
0
 10
207.689763
 20
165.763480
 30
0.0
 0
VERTEX
 8
0
 10
207.539769
 20
165.038474
 30
0.0
 0
VERTEX
 8
0
 10
207.487263
 20
164.655982
 30
0.0
 0
VERTEX
 8
0
 10
207.447270
 20
164.263480
 30
0.0
 0
VERTEX
 8
0
 10
207.424763
 20
163.858481
 30
0.0
 0
VERTEX
 8
0
 10
207.417271
 20
163.443473
 30
0.0
 0
VERTEX
 8
0
 10
207.444768
 20
162.670981
 30
0.0
 0
VERTEX
 8
0
 10
207.529759
 20
161.935981
 30
0.0
 0
VERTEX
 8
0
 10
207.667271
 20
161.240973
 30
0.0
 0
VERTEX
 8
0
 10
207.859761
 20
160.588477
 30
0.0
 0
VERTEX
 8
0
 10
208.104771
 20
159.978476
 30
0.0
 0
VERTEX
 8
0
 10
208.399769
 20
159.410971
 30
0.0
 0
VERTEX
 8
0
 10
208.747258
 20
158.890982
 30
0.0
 0
VERTEX
 8
0
 10
209.142262
 20
158.418479
 30
0.0
 0
VERTEX
 8
0
 10
209.587269
 20
157.995978
 30
0.0
 0
VERTEX
 8
0
 10
210.079762
 20
157.625983
 30
0.0
 0
VERTEX
 8
0
 10
210.617268
 20
157.305976
 30
0.0
 0
VERTEX
 8
0
 10
211.202260
 20
157.040976
 30
0.0
 0
VERTEX
 8
0
 10
211.829762
 20
156.833472
 30
0.0
 0
VERTEX
 8
0
 10
212.502263
 20
156.680976
 30
0.0
 0
VERTEX
 8
0
 10
212.854771
 20
156.628470
 30
0.0
 0
VERTEX
 8
0
 10
213.217259
 20
156.588477
 30
0.0
 0
VERTEX
 8
0
 10
213.589772
 20
156.565970
 30
0.0
 0
VERTEX
 8
0
 10
213.972264
 20
156.558478
 30
0.0
 0
VERTEX
 8
0
 10
214.484761
 20
156.570975
 30
0.0
 0
VERTEX
 8
0
 10
214.994771
 20
156.608481
 30
0.0
 0
VERTEX
 8
0
 10
215.489766
 20
156.670981
 30
0.0
 0
VERTEX
 8
0
 10
215.969761
 20
156.753470
 30
0.0
 0
VERTEX
 8
0
 10
216.427266
 20
156.855979
 30
0.0
 0
VERTEX
 8
0
 10
216.854771
 20
156.975974
 30
0.0
 0
VERTEX
 8
0
 10
217.249760
 20
157.115973
 30
0.0
 0
VERTEX
 8
0
 10
217.604771
 20
157.270972
 30
0.0
 0
SEQEND
 8
0
 0
POLYLINE
 8
0
 62
7
 66
 1
 10
0.0
 20
0.0
 30
0.0
 70
1
 0
VERTEX
 8
0
 10
143.192265
 20
172.080970
 30
0.0
 0
VERTEX
 8
0
 10
145.427266
 20
172.080970
 30
0.0
 0
VERTEX
 8
0
 10
145.427266
 20
156.813483
 30
0.0
 0
VERTEX
 8
0
 10
152.744771
 20
156.813483
 30
0.0
 0
VERTEX
 8
0
 10
152.744771
 20
154.958472
 30
0.0
 0
VERTEX
 8
0
 10
143.192265
 20
154.958472
 30
0.0
 0
SEQEND
 8
0
 0
POLYLINE
 8
0
 62
7
 66
 1
 10
0.0
 20
0.0
 30
0.0
 70
1
 0
VERTEX
 8
0
 10
109.732274
 20
154.958472
 30
0.0
 0
VERTEX
 8
0
 10
109.732274
 20
172.080970
 30
0.0
 0
VERTEX
 8
0
 10
112.169774
 20
172.080970
 30
0.0
 0
VERTEX
 8
0
 10
117.632268
 20
163.418479
 30
0.0
 0
VERTEX
 8
0
 10
118.087269
 20
162.675971
 30
0.0
 0
VERTEX
 8
0
 10
118.522267
 20
161.948478
 30
0.0
 0
VERTEX
 8
0
 10
118.934773
 20
161.238471
 30
0.0
 0
VERTEX
 8
0
 10
119.327275
 20
160.540976
 30
0.0
 0
VERTEX
 8
0
 10
119.697270
 20
159.855979
 30
0.0
 0
VERTEX
 8
0
 10
120.047261
 20
159.180976
 30
0.0
 0
VERTEX
 8
0
 10
120.374760
 20
158.513480
 30
0.0
 0
VERTEX
 8
0
 10
120.679768
 20
157.853476
 30
0.0
 0
VERTEX
 8
0
 10
120.757268
 20
157.880973
 30
0.0
 0
VERTEX
 8
0
 10
120.687260
 20
158.730979
 30
0.0
 0
VERTEX
 8
0
 10
120.629765
 20
159.568473
 30
0.0
 0
VERTEX
 8
0
 10
120.587269
 20
160.408484
 30
0.0
 0
VERTEX
 8
0
 10
120.552266
 20
161.255973
 30
0.0
 0
VERTEX
 8
0
 10
120.529774
 20
162.120978
 30
0.0
 0
VERTEX
 8
0
 10
120.512272
 20
163.013480
 30
0.0
 0
VERTEX
 8
0
 10
120.504765
 20
163.940970
 30
0.0
 0
VERTEX
 8
0
 10
120.502263
 20
164.915976
 30
0.0
 0
VERTEX
 8
0
 10
120.502263
 20
172.080970
 30
0.0
 0
VERTEX
 8
0
 10
122.584767
 20
172.080970
 30
0.0
 0
VERTEX
 8
0
 10
122.584767
 20
154.958472
 30
0.0
 0
VERTEX
 8
0
 10
120.349766
 20
154.958472
 30
0.0
 0
VERTEX
 8
0
 10
114.914769
 20
163.645972
 30
0.0
 0
VERTEX
 8
0
 10
114.032261
 20
165.080970
 30
0.0
 0
VERTEX
 8
0
 10
113.604771
 20
165.803473
 30
0.0
 0
VERTEX
 8
0
 10
113.192265
 20
166.523474
 30
0.0
 0
VERTEX
 8
0
 10
112.797261
 20
167.240973
 30
0.0
 0
VERTEX
 8
0
 10
112.422261
 20
167.953482
 30
0.0
 0
VERTEX
 8
0
 10
112.067265
 20
168.660971
 30
0.0
 0
VERTEX
 8
0
 10
111.739766
 20
169.360984
 30
0.0
 0
VERTEX
 8
0
 10
111.662266
 20
169.335974
 30
0.0
 0
VERTEX
 8
0
 10
111.739766
 20
167.720969
 30
0.0
 0
VERTEX
 8
0
 10
111.767262
 20
166.903479
 30
0.0
 0
VERTEX
 8
0
 10
111.787266
 20
166.060981
 30
0.0
 0
VERTEX
 8
0
 10
111.799763
 20
165.188483
 30
0.0
 0
VERTEX
 8
0
 10
111.809773
 20
164.273474
 30
0.0
 0
VERTEX
 8
0
 10
111.812260
 20
163.795981
 30
0.0
 0
VERTEX
 8
0
 10
111.812260
 20
163.305976
 30
0.0
 0
VERTEX
 8
0
 10
111.814763
 20
162.798484
 30
0.0
 0
VERTEX
 8
0
 10
111.814763
 20
162.273474
 30
0.0
 0
VERTEX
 8
0
 10
111.814763
 20
154.958472
 30
0.0
 0
SEQEND
 8
0
 0
POLYLINE
 8
0
 62
7
 66
 1
 10
0.0
 20
0.0
 30
0.0
 70
1
 0
VERTEX
 8
0
 10
79.764775
 20
157.650977
 30
0.0
 0
VERTEX
 8
0
 10
80.154790
 20
157.420981
 30
0.0
 0
VERTEX
 8
0
 10
80.582280
 20
157.208472
 30
0.0
 0
VERTEX
 8
0
 10
81.044774
 20
157.018470
 30
0.0
 0
VERTEX
 8
0
 10
81.532261
 20
156.853476
 30
0.0
 0
VERTEX
 8
0
 10
82.047276
 20
156.718482
 30
0.0
 0
VERTEX
 8
0
 10
82.582280
 20
156.618476
 30
0.0
 0
VERTEX
 8
0
 10
83.134770
 20
156.555976
 30
0.0
 0
VERTEX
 8
0
 10
83.702275
 20
156.533484
 30
0.0
 0
VERTEX
 8
0
 10
84.114781
 20
156.548484
 30
0.0
 0
VERTEX
 8
0
 10
84.504765
 20
156.588477
 30
0.0
 0
VERTEX
 8
0
 10
84.872288
 20
156.655982
 30
0.0
 0
VERTEX
 8
0
 10
85.214787
 20
156.745978
 30
0.0
 0
VERTEX
 8
0
 10
85.534764
 20
156.863471
 30
0.0
 0
VERTEX
 8
0
 10
85.829777
 20
157.003470
 30
0.0
 0
VERTEX
 8
0
 10
86.097264
 20
157.163474
 30
0.0
 0
VERTEX
 8
0
 10
86.342290
 20
157.345984
 30
0.0
 0
VERTEX
 8
0
 10
86.557286
 20
157.550971
 30
0.0
 0
VERTEX
 8
0
 10
86.747288
 20
157.770972
 30
0.0
 0
VERTEX
 8
0
 10
86.909764
 20
158.013480
 30
0.0
 0
VERTEX
 8
0
 10
87.042271
 20
158.270972
 30
0.0
 0
VERTEX
 8
0
 10
87.147282
 20
158.545981
 30
0.0
 0
VERTEX
 8
0
 10
87.224766
 20
158.833472
 30
0.0
 0
VERTEX
 8
0
 10
87.269780
 20
159.138480
 30
0.0
 0
VERTEX
 8
0
 10
87.284764
 20
159.455970
 30
0.0
 0
VERTEX
 8
0
 10
87.274785
 20
159.743476
 30
0.0
 0
VERTEX
 8
0
 10
87.239781
 20
160.015982
 30
0.0
 0
VERTEX
 8
0
 10
87.184788
 20
160.278479
 30
0.0
 0
VERTEX
 8
0
 10
87.104771
 20
160.525977
 30
0.0
 0
VERTEX
 8
0
 10
87.002263
 20
160.760978
 30
0.0
 0
VERTEX
 8
0
 10
86.872288
 20
160.988471
 30
0.0
 0
VERTEX
 8
0
 10
86.719761
 20
161.203482
 30
0.0
 0
VERTEX
 8
0
 10
86.537266
 20
161.410971
 30
0.0
 0
VERTEX
 8
0
 10
86.329777
 20
161.608481
 30
0.0
 0
VERTEX
 8
0
 10
86.094761
 20
161.798484
 30
0.0
 0
VERTEX
 8
0
 10
85.829777
 20
161.983481
 30
0.0
 0
VERTEX
 8
0
 10
85.537266
 20
162.160971
 30
0.0
 0
VERTEX
 8
0
 10
85.214787
 20
162.335974
 30
0.0
 0
VERTEX
 8
0
 10
84.859776
 20
162.503470
 30
0.0
 0
VERTEX
 8
0
 10
84.474766
 20
162.670981
 30
0.0
 0
VERTEX
 8
0
 10
84.057286
 20
162.833472
 30
0.0
 0
VERTEX
 8
0
 10
83.547276
 20
163.028479
 30
0.0
 0
VERTEX
 8
0
 10
83.062291
 20
163.235984
 30
0.0
 0
VERTEX
 8
0
 10
82.602269
 20
163.455970
 30
0.0
 0
VERTEX
 8
0
 10
82.172276
 20
163.688483
 30
0.0
 0
VERTEX
 8
0
 10
81.772282
 20
163.933478
 30
0.0
 0
VERTEX
 8
0
 10
81.399785
 20
164.193473
 30
0.0
 0
VERTEX
 8
0
 10
81.059788
 20
164.468482
 30
0.0
 0
VERTEX
 8
0
 10
80.749791
 20
164.758475
 30
0.0
 0
VERTEX
 8
0
 10
80.474766
 20
165.063483
 30
0.0
 0
VERTEX
 8
0
 10
80.232274
 20
165.385978
 30
0.0
 0
VERTEX
 8
0
 10
80.022282
 20
165.725974
 30
0.0
 0
VERTEX
 8
0
 10
79.849766
 20
166.083472
 30
0.0
 0
VERTEX
 8
0
 10
79.714787
 20
166.460974
 30
0.0
 0
VERTEX
 8
0
 10
79.617283
 20
166.858481
 30
0.0
 0
VERTEX
 8
0
 10
79.557286
 20
167.273474
 30
0.0
 0
VERTEX
 8
0
 10
79.537266
 20
167.710974
 30
0.0
 0
VERTEX
 8
0
 10
79.562291
 20
168.203482
 30
0.0
 0
VERTEX
 8
0
 10
79.639775
 20
168.675971
 30
0.0
 0
VERTEX
 8
0
 10
79.762272
 20
169.130973
 30
0.0
 0
VERTEX
 8
0
 10
79.934788
 20
169.563483
 30
0.0
 0
VERTEX
 8
0
 10
80.152287
 20
169.970969
 30
0.0
 0
VERTEX
 8
0
 10
80.412266
 20
170.353476
 30
0.0
 0
VERTEX
 8
0
 10
80.714787
 20
170.708472
 30
0.0
 0
VERTEX
 8
0
 10
81.057286
 20
171.035971
 30
0.0
 0
VERTEX
 8
0
 10
81.439763
 20
171.330970
 30
0.0
 0
VERTEX
 8
0
 10
81.859776
 20
171.590979
 30
0.0
 0
VERTEX
 8
0
 10
82.314763
 20
171.818473
 30
0.0
 0
VERTEX
 8
0
 10
82.804783
 20
172.008475
 30
0.0
 0
VERTEX
 8
0
 10
83.327275
 20
172.158469
 30
0.0
 0
VERTEX
 8
0
 10
83.882268
 20
172.268470
 30
0.0
 0
VERTEX
 8
0
 10
84.464787
 20
172.335974
 30
0.0
 0
VERTEX
 8
0
 10
85.074772
 20
172.358481
 30
0.0
 0
VERTEX
 8
0
 10
85.702275
 20
172.340979
 30
0.0
 0
VERTEX
 8
0
 10
86.287266
 20
172.288474
 30
0.0
 0
VERTEX
 8
0
 10
86.829777
 20
172.205970
 30
0.0
 0
VERTEX
 8
0
 10
87.324772
 20
172.100974
 30
0.0
 0
VERTEX
 8
0
 10
87.777287
 20
171.975974
 30
0.0
 0
VERTEX
 8
0
 10
88.179783
 20
171.833472
 30
0.0
 0
VERTEX
 8
0
 10
88.532261
 20
171.680976
 30
0.0
 0
VERTEX
 8
0
 10
88.834782
 20
171.520972
 30
0.0
 0
VERTEX
 8
0
 10
88.224766
 20
169.718482
 30
0.0
 0
VERTEX
 8
0
 10
87.997288
 20
169.848471
 30
0.0
 0
VERTEX
 8
0
 10
87.712285
 20
169.983481
 30
0.0
 0
VERTEX
 8
0
 10
87.377263
 20
170.118476
 30
0.0
 0
VERTEX
 8
0
 10
86.992283
 20
170.248481
 30
0.0
 0
VERTEX
 8
0
 10
86.559788
 20
170.360984
 30
0.0
 0
VERTEX
 8
0
 10
86.079777
 20
170.450980
 30
0.0
 0
VERTEX
 8
0
 10
85.559788
 20
170.508475
 30
0.0
 0
VERTEX
 8
0
 10
84.997288
 20
170.530982
 30
0.0
 0
VERTEX
 8
0
 10
84.574772
 20
170.515982
 30
0.0
 0
VERTEX
 8
0
 10
84.187291
 20
170.468482
 30
0.0
 0
VERTEX
 8
0
 10
83.832280
 20
170.393470
 30
0.0
 0
VERTEX
 8
0
 10
83.507268
 20
170.293479
 30
0.0
 0
VERTEX
 8
0
 10
83.212285
 20
170.170981
 30
0.0
 0
VERTEX
 8
0
 10
82.949772
 20
170.025977
 30
0.0
 0
VERTEX
 8
0
 10
82.714787
 20
169.863471
 30
0.0
 0
VERTEX
 8
0
 10
82.507268
 20
169.685981
 30
0.0
 0
VERTEX
 8
0
 10
82.329777
 20
169.493476
 30
0.0
 0
VERTEX
 8
0
 10
82.177281
 20
169.290976
 30
0.0
 0
VERTEX
 8
0
 10
82.049779
 20
169.078482
 30
0.0
 0
VERTEX
 8
0
 10
81.947270
 20
168.858481
 30
0.0
 0
VERTEX
 8
0
 10
81.869786
 20
168.635978
 30
0.0
 0
VERTEX
 8
0
 10
81.814763
 20
168.408469
 30
0.0
 0
VERTEX
 8
0
 10
81.782261
 20
168.185981
 30
0.0
 0
VERTEX
 8
0
 10
81.772282
 20
167.963477
 30
0.0
 0
VERTEX
 8
0
 10
81.784764
 20
167.673484
 30
0.0
 0
VERTEX
 8
0
 10
81.822270
 20
167.400977
 30
0.0
 0
VERTEX
 8
0
 10
81.884770
 20
167.143470
 30
0.0
 0
VERTEX
 8
0
 10
81.972264
 20
166.900977
 30
0.0
 0
VERTEX
 8
0
 10
82.084782
 20
166.673484
 30
0.0
 0
VERTEX
 8
0
 10
82.224766
 20
166.455970
 30
0.0
 0
VERTEX
 8
0
 10
82.392277
 20
166.250983
 30
0.0
 0
VERTEX
 8
0
 10
82.587285
 20
166.055976
 30
0.0
 0
VERTEX
 8
0
 10
82.809788
 20
165.868476
 30
0.0
 0
VERTEX
 8
0
 10
83.059788
 20
165.685981
 30
0.0
 0
VERTEX
 8
0
 10
83.339787
 20
165.510978
 30
0.0
 0
VERTEX
 8
0
 10
83.647282
 20
165.338477
 30
0.0
 0
VERTEX
 8
0
 10
83.982274
 20
165.168479
 30
0.0
 0
VERTEX
 8
0
 10
84.349766
 20
165.000983
 30
0.0
 0
VERTEX
 8
0
 10
84.747288
 20
164.830970
 30
0.0
 0
VERTEX
 8
0
 10
85.174779
 20
164.660971
 30
0.0
 0
VERTEX
 8
0
 10
85.702275
 20
164.448478
 30
0.0
 0
VERTEX
 8
0
 10
86.192265
 20
164.228476
 30
0.0
 0
VERTEX
 8
0
 10
86.652287
 20
163.998481
 30
0.0
 0
VERTEX
 8
0
 10
87.077275
 20
163.758475
 30
0.0
 0
VERTEX
 8
0
 10
87.467290
 20
163.505973
 30
0.0
 0
VERTEX
 8
0
 10
87.822270
 20
163.243476
 30
0.0
 0
VERTEX
 8
0
 10
88.144780
 20
162.963477
 30
0.0
 0
VERTEX
 8
0
 10
88.434788
 20
162.670981
 30
0.0
 0
VERTEX
 8
0
 10
88.687291
 20
162.360984
 30
0.0
 0
VERTEX
 8
0
 10
88.909764
 20
162.035971
 30
0.0
 0
VERTEX
 8
0
 10
89.094761
 20
161.688483
 30
0.0
 0
VERTEX
 8
0
 10
89.247288
 20
161.323478
 30
0.0
 0
VERTEX
 8
0
 10
89.367283
 20
160.935981
 30
0.0
 0
VERTEX
 8
0
 10
89.452275
 20
160.525977
 30
0.0
 0
VERTEX
 8
0
 10
89.502263
 20
160.090979
 30
0.0
 0
VERTEX
 8
0
 10
89.519780
 20
159.633475
 30
0.0
 0
VERTEX
 8
0
 10
89.497288
 20
159.143470
 30
0.0
 0
VERTEX
 8
0
 10
89.429783
 20
158.660971
 30
0.0
 0
VERTEX
 8
0
 10
89.314763
 20
158.195975
 30
0.0
 0
VERTEX
 8
0
 10
89.154790
 20
157.743476
 30
0.0
 0
VERTEX
 8
0
 10
88.949772
 20
157.313483
 30
0.0
 0
VERTEX
 8
0
 10
88.697270
 20
156.903479
 30
0.0
 0
VERTEX
 8
0
 10
88.397282
 20
156.520972
 30
0.0
 0
VERTEX
 8
0
 10
88.049779
 20
156.165976
 30
0.0
 0
VERTEX
 8
0
 10
87.654790
 20
155.840979
 30
0.0
 0
VERTEX
 8
0
 10
87.214787
 20
155.548484
 30
0.0
 0
VERTEX
 8
0
 10
86.724766
 20
155.295981
 30
0.0
 0
VERTEX
 8
0
 10
86.187291
 20
155.080970
 30
0.0
 0
VERTEX
 8
0
 10
85.599766
 20
154.908484
 30
0.0
 0
VERTEX
 8
0
 10
84.967290
 20
154.783484
 30
0.0
 0
VERTEX
 8
0
 10
84.282261
 20
154.705970
 30
0.0
 0
VERTEX
 8
0
 10
83.549779
 20
154.678473
 30
0.0
 0
VERTEX
 8
0
 10
82.924779
 20
154.700980
 30
0.0
 0
VERTEX
 8
0
 10
82.297276
 20
154.768470
 30
0.0
 0
VERTEX
 8
0
 10
81.682286
 20
154.870978
 30
0.0
 0
VERTEX
 8
0
 10
81.087285
 20
155.008475
 30
0.0
 0
VERTEX
 8
0
 10
80.529790
 20
155.173484
 30
0.0
 0
VERTEX
 8
0
 10
80.017277
 20
155.363471
 30
0.0
 0
VERTEX
 8
0
 10
79.782261
 20
155.465979
 30
0.0
 0
VERTEX
 8
0
 10
79.562291
 20
155.573478
 30
0.0
 0
VERTEX
 8
0
 10
79.362279
 20
155.683478
 30
0.0
 0
VERTEX
 8
0
 10
79.179783
 20
155.795981
 30
0.0
 0
SEQEND
 8
0
 0
POLYLINE
 8
0
 62
7
 66
 1
 10
0.0
 20
0.0
 30
0.0
 70
1
 0
VERTEX
 8
0
 10
48.399785
 20
172.080970
 30
0.0
 0
VERTEX
 8
0
 10
48.399785
 20
164.915976
 30
0.0
 0
VERTEX
 8
0
 10
56.682286
 20
164.915976
 30
0.0
 0
VERTEX
 8
0
 10
56.682286
 20
172.080970
 30
0.0
 0
VERTEX
 8
0
 10
58.917271
 20
172.080970
 30
0.0
 0
VERTEX
 8
0
 10
58.917271
 20
154.958472
 30
0.0
 0
VERTEX
 8
0
 10
56.682286
 20
154.958472
 30
0.0
 0
VERTEX
 8
0
 10
56.682286
 20
162.985984
 30
0.0
 0
VERTEX
 8
0
 10
48.399785
 20
162.985984
 30
0.0
 0
VERTEX
 8
0
 10
48.399785
 20
154.958472
 30
0.0
 0
VERTEX
 8
0
 10
46.164769
 20
154.958472
 30
0.0
 0
VERTEX
 8
0
 10
46.164769
 20
172.080970
 30
0.0
 0
SEQEND
 8
0
 0
POLYLINE
 8
0
 62
7
 66
 1
 10
0.0
 20
0.0
 30
0.0
 70
1
 0
VERTEX
 8
0
 10
27.184788
 20
155.490973
 30
0.0
 0
VERTEX
 8
0
 10
27.027287
 20
155.415976
 30
0.0
 0
VERTEX
 8
0
 10
26.849766
 20
155.340979
 30
0.0
 0
VERTEX
 8
0
 10
26.654790
 20
155.265982
 30
0.0
 0
VERTEX
 8
0
 10
26.439763
 20
155.193473
 30
0.0
 0
VERTEX
 8
0
 10
26.207280
 20
155.123481
 30
0.0
 0
VERTEX
 8
0
 10
25.957280
 20
155.055976
 30
0.0
 0
VERTEX
 8
0
 10
25.692265
 20
154.993476
 30
0.0
 0
VERTEX
 8
0
 10
25.409764
 20
154.933478
 30
0.0
 0
VERTEX
 8
0
 10
25.112279
 20
154.878470
 30
0.0
 0
VERTEX
 8
0
 10
24.802281
 20
154.828482
 30
0.0
 0
VERTEX
 8
0
 10
24.137272
 20
154.748481
 30
0.0
 0
VERTEX
 8
0
 10
23.422276
 20
154.695975
 30
0.0
 0
VERTEX
 8
0
 10
22.662266
 20
154.678473
 30
0.0
 0
VERTEX
 8
0
 10
22.214787
 20
154.688483
 30
0.0
 0
VERTEX
 8
0
 10
21.772282
 20
154.713477
 30
0.0
 0
VERTEX
 8
0
 10
21.339787
 20
154.758475
 30
0.0
 0
VERTEX
 8
0
 10
20.914769
 20
154.820975
 30
0.0
 0
VERTEX
 8
0
 10
20.499791
 20
154.900977
 30
0.0
 0
VERTEX
 8
0
 10
20.092290
 20
154.995978
 30
0.0
 0
VERTEX
 8
0
 10
19.694768
 20
155.110984
 30
0.0
 0
VERTEX
 8
0
 10
19.309788
 20
155.243476
 30
0.0
 0
VERTEX
 8
0
 10
18.932286
 20
155.390982
 30
0.0
 0
VERTEX
 8
0
 10
18.567265
 20
155.558478
 30
0.0
 0
VERTEX
 8
0
 10
18.214787
 20
155.740973
 30
0.0
 0
VERTEX
 8
0
 10
17.874791
 20
155.940970
 30
0.0
 0
VERTEX
 8
0
 10
17.544774
 20
156.158484
 30
0.0
 0
VERTEX
 8
0
 10
17.229771
 20
156.390982
 30
0.0
 0
VERTEX
 8
0
 10
16.924779
 20
156.640982
 30
0.0
 0
VERTEX
 8
0
 10
16.637272
 20
156.908484
 30
0.0
 0
VERTEX
 8
0
 10
16.362279
 20
157.190970
 30
0.0
 0
VERTEX
 8
0
 10
16.102269
 20
157.490973
 30
0.0
 0
VERTEX
 8
0
 10
15.854771
 20
157.805976
 30
0.0
 0
VERTEX
 8
0
 10
15.624791
 20
158.138480
 30
0.0
 0
VERTEX
 8
0
 10
15.412266
 20
158.488471
 30
0.0
 0
VERTEX
 8
0
 10
15.214787
 20
158.853476
 30
0.0
 0
VERTEX
 8
0
 10
15.032292
 20
159.233481
 30
0.0
 0
VERTEX
 8
0
 10
14.869786
 20
159.630973
 30
0.0
 0
VERTEX
 8
0
 10
14.722264
 20
160.043479
 30
0.0
 0
VERTEX
 8
0
 10
14.594792
 20
160.470984
 30
0.0
 0
VERTEX
 8
0
 10
14.484776
 20
160.913474
 30
0.0
 0
VERTEX
 8
0
 10
14.394780
 20
161.373481
 30
0.0
 0
VERTEX
 8
0
 10
14.322270
 20
161.848471
 30
0.0
 0
VERTEX
 8
0
 10
14.272282
 20
162.338477
 30
0.0
 0
VERTEX
 8
0
 10
14.239781
 20
162.843482
 30
0.0
 0
VERTEX
 8
0
 10
14.229771
 20
163.365973
 30
0.0
 0
VERTEX
 8
0
 10
14.239781
 20
163.865973
 30
0.0
 0
VERTEX
 8
0
 10
14.272282
 20
164.353476
 30
0.0
 0
VERTEX
 8
0
 10
14.324772
 20
164.830970
 30
0.0
 0
VERTEX
 8
0
 10
14.397282
 20
165.298484
 30
0.0
 0
VERTEX
 8
0
 10
14.487279
 20
165.753470
 30
0.0
 0
VERTEX
 8
0
 10
14.599766
 20
166.195975
 30
0.0
 0
VERTEX
 8
0
 10
14.729771
 20
166.625983
 30
0.0
 0
VERTEX
 8
0
 10
14.879765
 20
167.043479
 30
0.0
 0
VERTEX
 8
0
 10
15.047276
 20
167.445975
 30
0.0
 0
VERTEX
 8
0
 10
15.234776
 20
167.838477
 30
0.0
 0
VERTEX
 8
0
 10
15.437291
 20
168.215979
 30
0.0
 0
VERTEX
 8
0
 10
15.659764
 20
168.578482
 30
0.0
 0
VERTEX
 8
0
 10
15.897282
 20
168.925971
 30
0.0
 0
VERTEX
 8
0
 10
16.152287
 20
169.260978
 30
0.0
 0
VERTEX
 8
0
 10
16.422276
 20
169.578482
 30
0.0
 0
VERTEX
 8
0
 10
16.709782
 20
169.880973
 30
0.0
 0
VERTEX
 8
0
 10
17.012272
 20
170.168479
 30
0.0
 0
VERTEX
 8
0
 10
17.329777
 20
170.440970
 30
0.0
 0
VERTEX
 8
0
 10
17.662266
 20
170.695975
 30
0.0
 0
VERTEX
 8
0
 10
18.009770
 20
170.933478
 30
0.0
 0
VERTEX
 8
0
 10
18.369786
 20
171.153479
 30
0.0
 0
VERTEX
 8
0
 10
18.744786
 20
171.358481
 30
0.0
 0
VERTEX
 8
0
 10
19.134770
 20
171.543479
 30
0.0
 0
VERTEX
 8
0
 10
19.534764
 20
171.710974
 30
0.0
 0
VERTEX
 8
0
 10
19.949772
 20
171.860984
 30
0.0
 0
VERTEX
 8
0
 10
20.374791
 20
171.990973
 30
0.0
 0
VERTEX
 8
0
 10
20.814763
 20
172.100974
 30
0.0
 0
VERTEX
 8
0
 10
21.262272
 20
172.193473
 30
0.0
 0
VERTEX
 8
0
 10
21.724766
 20
172.265982
 30
0.0
 0
VERTEX
 8
0
 10
22.197270
 20
172.315970
 30
0.0
 0
VERTEX
 8
0
 10
22.679783
 20
172.348471
 30
0.0
 0
VERTEX
 8
0
 10
23.172276
 20
172.358481
 30
0.0
 0
VERTEX
 8
0
 10
23.559788
 20
172.353476
 30
0.0
 0
VERTEX
 8
0
 10
23.927281
 20
172.338477
 30
0.0
 0
VERTEX
 8
0
 10
24.279790
 20
172.313483
 30
0.0
 0
VERTEX
 8
0
 10
24.614781
 20
172.283469
 30
0.0
 0
VERTEX
 8
0
 10
24.932286
 20
172.243476
 30
0.0
 0
VERTEX
 8
0
 10
25.229771
 20
172.198478
 30
0.0
 0
VERTEX
 8
0
 10
25.512272
 20
172.145972
 30
0.0
 0
VERTEX
 8
0
 10
25.774785
 20
172.090979
 30
0.0
 0
VERTEX
 8
0
 10
26.022282
 20
172.033469
 30
0.0
 0
VERTEX
 8
0
 10
26.249791
 20
171.970969
 30
0.0
 0
VERTEX
 8
0
 10
26.459782
 20
171.908469
 30
0.0
 0
VERTEX
 8
0
 10
26.649785
 20
171.843482
 30
0.0
 0
VERTEX
 8
0
 10
26.824772
 20
171.778479
 30
0.0
 0
VERTEX
 8
0
 10
26.979771
 20
171.715979
 30
0.0
 0
VERTEX
 8
0
 10
27.117283
 20
171.655982
 30
0.0
 0
VERTEX
 8
0
 10
27.234776
 20
171.595969
 30
0.0
 0
VERTEX
 8
0
 10
26.677281
 20
169.793479
 30
0.0
 0
VERTEX
 8
0
 10
26.354771
 20
169.940970
 30
0.0
 0
VERTEX
 8
0
 10
25.999791
 20
170.075980
 30
0.0
 0
VERTEX
 8
0
 10
25.609776
 20
170.195975
 30
0.0
 0
VERTEX
 8
0
 10
25.189763
 20
170.300971
 30
0.0
 0
VERTEX
 8
0
 10
24.742283
 20
170.385978
 30
0.0
 0
VERTEX
 8
0
 10
24.269780
 20
170.448478
 30
0.0
 0
VERTEX
 8
0
 10
23.769780
 20
170.488471
 30
0.0
 0
VERTEX
 8
0
 10
23.247288
 20
170.503470
 30
0.0
 0
VERTEX
 8
0
 10
22.874791
 20
170.495978
 30
0.0
 0
VERTEX
 8
0
 10
22.509770
 20
170.473471
 30
0.0
 0
VERTEX
 8
0
 10
21.807286
 20
170.383475
 30
0.0
 0
VERTEX
 8
0
 10
21.139775
 20
170.235984
 30
0.0
 0
VERTEX
 8
0
 10
20.509770
 20
170.033469
 30
0.0
 0
VERTEX
 8
0
 10
19.919774
 20
169.770972
 30
0.0
 0
VERTEX
 8
0
 10
19.369786
 20
169.455970
 30
0.0
 0
VERTEX
 8
0
 10
18.864781
 20
169.083472
 30
0.0
 0
VERTEX
 8
0
 10
18.402287
 20
168.658469
 30
0.0
 0
VERTEX
 8
0
 10
17.987279
 20
168.180976
 30
0.0
 0
VERTEX
 8
0
 10
17.622288
 20
167.653479
 30
0.0
 0
VERTEX
 8
0
 10
17.309788
 20
167.073478
 30
0.0
 0
VERTEX
 8
0
 10
17.047276
 20
166.443473
 30
0.0
 0
VERTEX
 8
0
 10
16.839787
 20
165.763480
 30
0.0
 0
VERTEX
 8
0
 10
16.689763
 20
165.038474
 30
0.0
 0
VERTEX
 8
0
 10
16.637272
 20
164.655982
 30
0.0
 0
VERTEX
 8
0
 10
16.599766
 20
164.263480
 30
0.0
 0
VERTEX
 8
0
 10
16.574772
 20
163.858481
 30
0.0
 0
VERTEX
 8
0
 10
16.567265
 20
163.443473
 30
0.0
 0
VERTEX
 8
0
 10
16.594792
 20
162.670981
 30
0.0
 0
VERTEX
 8
0
 10
16.679783
 20
161.935981
 30
0.0
 0
VERTEX
 8
0
 10
16.817265
 20
161.240973
 30
0.0
 0
VERTEX
 8
0
 10
17.009770
 20
160.588477
 30
0.0
 0
VERTEX
 8
0
 10
17.252263
 20
159.978476
 30
0.0
 0
VERTEX
 8
0
 10
17.549779
 20
159.410971
 30
0.0
 0
VERTEX
 8
0
 10
17.894780
 20
158.890982
 30
0.0
 0
VERTEX
 8
0
 10
18.292271
 20
158.418479
 30
0.0
 0
VERTEX
 8
0
 10
18.734776
 20
157.995978
 30
0.0
 0
VERTEX
 8
0
 10
19.227269
 20
157.625983
 30
0.0
 0
VERTEX
 8
0
 10
19.764775
 20
157.305976
 30
0.0
 0
VERTEX
 8
0
 10
20.349766
 20
157.040976
 30
0.0
 0
VERTEX
 8
0
 10
20.977269
 20
156.833472
 30
0.0
 0
VERTEX
 8
0
 10
21.649785
 20
156.680976
 30
0.0
 0
VERTEX
 8
0
 10
22.002263
 20
156.628470
 30
0.0
 0
VERTEX
 8
0
 10
22.364781
 20
156.588477
 30
0.0
 0
VERTEX
 8
0
 10
22.737279
 20
156.565970
 30
0.0
 0
VERTEX
 8
0
 10
23.119786
 20
156.558478
 30
0.0
 0
VERTEX
 8
0
 10
23.632268
 20
156.570975
 30
0.0
 0
VERTEX
 8
0
 10
24.142277
 20
156.608481
 30
0.0
 0
VERTEX
 8
0
 10
24.637272
 20
156.670981
 30
0.0
 0
VERTEX
 8
0
 10
25.117283
 20
156.753470
 30
0.0
 0
VERTEX
 8
0
 10
25.574772
 20
156.855979
 30
0.0
 0
VERTEX
 8
0
 10
26.002263
 20
156.975974
 30
0.0
 0
VERTEX
 8
0
 10
26.397282
 20
157.115973
 30
0.0
 0
VERTEX
 8
0
 10
26.752263
 20
157.270972
 30
0.0
 0
SEQEND
 8
0
 0
POLYLINE
 8
0
 62
7
 66
 1
 10
0.0
 20
0.0
 30
0.0
 70
1
 0
VERTEX
 8
0
 10
-7.037715
 20
162.985984
 30
0.0
 0
VERTEX
 8
0
 10
-13.667720
 20
162.985984
 30
0.0
 0
VERTEX
 8
0
 10
-13.667720
 20
156.813483
 30
0.0
 0
VERTEX
 8
0
 10
-6.250209
 20
156.813483
 30
0.0
 0
VERTEX
 8
0
 10
-6.250209
 20
154.958472
 30
0.0
 0
VERTEX
 8
0
 10
-15.902736
 20
154.958472
 30
0.0
 0
VERTEX
 8
0
 10
-15.902736
 20
172.080970
 30
0.0
 0
VERTEX
 8
0
 10
-6.630214
 20
172.080970
 30
0.0
 0
VERTEX
 8
0
 10
-6.630214
 20
170.225974
 30
0.0
 0
VERTEX
 8
0
 10
-13.667720
 20
170.225974
 30
0.0
 0
VERTEX
 8
0
 10
-13.667720
 20
164.815970
 30
0.0
 0
VERTEX
 8
0
 10
-7.037715
 20
164.815970
 30
0.0
 0
SEQEND
 8
0
 0
POLYLINE
 8
0
 62
7
 66
 1
 10
0.0
 20
0.0
 30
0.0
 70
1
 0
VERTEX
 8
0
 10
-47.470210
 20
157.650977
 30
0.0
 0
VERTEX
 8
0
 10
-47.077724
 20
157.420981
 30
0.0
 0
VERTEX
 8
0
 10
-46.650234
 20
157.208472
 30
0.0
 0
VERTEX
 8
0
 10
-46.190212
 20
157.018470
 30
0.0
 0
VERTEX
 8
0
 10
-45.700221
 20
156.853476
 30
0.0
 0
VERTEX
 8
0
 10
-45.185207
 20
156.718482
 30
0.0
 0
VERTEX
 8
0
 10
-44.650234
 20
156.618476
 30
0.0
 0
VERTEX
 8
0
 10
-44.097713
 20
156.555976
 30
0.0
 0
VERTEX
 8
0
 10
-43.532710
 20
156.533484
 30
0.0
 0
VERTEX
 8
0
 10
-43.120235
 20
156.548484
 30
0.0
 0
VERTEX
 8
0
 10
-42.730220
 20
156.588477
 30
0.0
 0
VERTEX
 8
0
 10
-42.362728
 20
156.655982
 30
0.0
 0
VERTEX
 8
0
 10
-42.017726
 20
156.745978
 30
0.0
 0
VERTEX
 8
0
 10
-41.700221
 20
156.863471
 30
0.0
 0
VERTEX
 8
0
 10
-41.405208
 20
157.003470
 30
0.0
 0
VERTEX
 8
0
 10
-41.135219
 20
157.163474
 30
0.0
 0
VERTEX
 8
0
 10
-40.892726
 20
157.345984
 30
0.0
 0
VERTEX
 8
0
 10
-40.677730
 20
157.550971
 30
0.0
 0
VERTEX
 8
0
 10
-40.487728
 20
157.770972
 30
0.0
 0
VERTEX
 8
0
 10
-40.325221
 20
158.013480
 30
0.0
 0
VERTEX
 8
0
 10
-40.192714
 20
158.270972
 30
0.0
 0
VERTEX
 8
0
 10
-40.087734
 20
158.545981
 30
0.0
 0
VERTEX
 8
0
 10
-40.010219
 20
158.833472
 30
0.0
 0
VERTEX
 8
0
 10
-39.965236
 20
159.138480
 30
0.0
 0
VERTEX
 8
0
 10
-39.950221
 20
159.455970
 30
0.0
 0
VERTEX
 8
0
 10
-39.960231
 20
159.743476
 30
0.0
 0
VERTEX
 8
0
 10
-39.995235
 20
160.015982
 30
0.0
 0
VERTEX
 8
0
 10
-40.050228
 20
160.278479
 30
0.0
 0
VERTEX
 8
0
 10
-40.130214
 20
160.525977
 30
0.0
 0
VERTEX
 8
0
 10
-40.232723
 20
160.760978
 30
0.0
 0
VERTEX
 8
0
 10
-40.362728
 20
160.988471
 30
0.0
 0
VERTEX
 8
0
 10
-40.515224
 20
161.203482
 30
0.0
 0
VERTEX
 8
0
 10
-40.697719
 20
161.410971
 30
0.0
 0
VERTEX
 8
0
 10
-40.905208
 20
161.608481
 30
0.0
 0
VERTEX
 8
0
 10
-41.140224
 20
161.798484
 30
0.0
 0
VERTEX
 8
0
 10
-41.402736
 20
161.983481
 30
0.0
 0
VERTEX
 8
0
 10
-41.697719
 20
162.160971
 30
0.0
 0
VERTEX
 8
0
 10
-42.020229
 20
162.335974
 30
0.0
 0
VERTEX
 8
0
 10
-42.372707
 20
162.503470
 30
0.0
 0
VERTEX
 8
0
 10
-42.757717
 20
162.670981
 30
0.0
 0
VERTEX
 8
0
 10
-43.175228
 20
162.833472
 30
0.0
 0
VERTEX
 8
0
 10
-43.687709
 20
163.028479
 30
0.0
 0
VERTEX
 8
0
 10
-44.172725
 20
163.235984
 30
0.0
 0
VERTEX
 8
0
 10
-44.630214
 20
163.455970
 30
0.0
 0
VERTEX
 8
0
 10
-45.060207
 20
163.688483
 30
0.0
 0
VERTEX
 8
0
 10
-45.462734
 20
163.933478
 30
0.0
 0
VERTEX
 8
0
 10
-45.835231
 20
164.193473
 30
0.0
 0
VERTEX
 8
0
 10
-46.175228
 20
164.468482
 30
0.0
 0
VERTEX
 8
0
 10
-46.485225
 20
164.758475
 30
0.0
 0
VERTEX
 8
0
 10
-46.760219
 20
165.063483
 30
0.0
 0
VERTEX
 8
0
 10
-47.002712
 20
165.385978
 30
0.0
 0
VERTEX
 8
0
 10
-47.212734
 20
165.725974
 30
0.0
 0
VERTEX
 8
0
 10
-47.385219
 20
166.083472
 30
0.0
 0
VERTEX
 8
0
 10
-47.520229
 20
166.460974
 30
0.0
 0
VERTEX
 8
0
 10
-47.617732
 20
166.858481
 30
0.0
 0
VERTEX
 8
0
 10
-47.677730
 20
167.273474
 30
0.0
 0
VERTEX
 8
0
 10
-47.697719
 20
167.710974
 30
0.0
 0
VERTEX
 8
0
 10
-47.672725
 20
168.203482
 30
0.0
 0
VERTEX
 8
0
 10
-47.595210
 20
168.675971
 30
0.0
 0
VERTEX
 8
0
 10
-47.472713
 20
169.130973
 30
0.0
 0
VERTEX
 8
0
 10
-47.300228
 20
169.563483
 30
0.0
 0
VERTEX
 8
0
 10
-47.082729
 20
169.970969
 30
0.0
 0
VERTEX
 8
0
 10
-46.822719
 20
170.353476
 30
0.0
 0
VERTEX
 8
0
 10
-46.520229
 20
170.708472
 30
0.0
 0
VERTEX
 8
0
 10
-46.177730
 20
171.035971
 30
0.0
 0
VERTEX
 8
0
 10
-45.795223
 20
171.330970
 30
0.0
 0
VERTEX
 8
0
 10
-45.375209
 20
171.590979
 30
0.0
 0
VERTEX
 8
0
 10
-44.920223
 20
171.818473
 30
0.0
 0
VERTEX
 8
0
 10
-44.430232
 20
172.008475
 30
0.0
 0
VERTEX
 8
0
 10
-43.907710
 20
172.158469
 30
0.0
 0
VERTEX
 8
0
 10
-43.352718
 20
172.268470
 30
0.0
 0
VERTEX
 8
0
 10
-42.770229
 20
172.335974
 30
0.0
 0
VERTEX
 8
0
 10
-42.160213
 20
172.358481
 30
0.0
 0
VERTEX
 8
0
 10
-41.532710
 20
172.340979
 30
0.0
 0
VERTEX
 8
0
 10
-40.947719
 20
172.288474
 30
0.0
 0
VERTEX
 8
0
 10
-40.405208
 20
172.205970
 30
0.0
 0
VERTEX
 8
0
 10
-39.910213
 20
172.100974
 30
0.0
 0
VERTEX
 8
0
 10
-39.457729
 20
171.975974
 30
0.0
 0
VERTEX
 8
0
 10
-39.055232
 20
171.833472
 30
0.0
 0
VERTEX
 8
0
 10
-38.702724
 20
171.680976
 30
0.0
 0
VERTEX
 8
0
 10
-38.400234
 20
171.520972
 30
0.0
 0
VERTEX
 8
0
 10
-39.010219
 20
169.718482
 30
0.0
 0
VERTEX
 8
0
 10
-39.237728
 20
169.848471
 30
0.0
 0
VERTEX
 8
0
 10
-39.520229
 20
169.983481
 30
0.0
 0
VERTEX
 8
0
 10
-39.857723
 20
170.118476
 30
0.0
 0
VERTEX
 8
0
 10
-40.242732
 20
170.248481
 30
0.0
 0
VERTEX
 8
0
 10
-40.675228
 20
170.360984
 30
0.0
 0
VERTEX
 8
0
 10
-41.155208
 20
170.450980
 30
0.0
 0
VERTEX
 8
0
 10
-41.675228
 20
170.508475
 30
0.0
 0
VERTEX
 8
0
 10
-42.237728
 20
170.530982
 30
0.0
 0
VERTEX
 8
0
 10
-42.657710
 20
170.515982
 30
0.0
 0
VERTEX
 8
0
 10
-43.047725
 20
170.468482
 30
0.0
 0
VERTEX
 8
0
 10
-43.402736
 20
170.393470
 30
0.0
 0
VERTEX
 8
0
 10
-43.727718
 20
170.293479
 30
0.0
 0
VERTEX
 8
0
 10
-44.020229
 20
170.170981
 30
0.0
 0
VERTEX
 8
0
 10
-44.285213
 20
170.025977
 30
0.0
 0
VERTEX
 8
0
 10
-44.520229
 20
169.863471
 30
0.0
 0
VERTEX
 8
0
 10
-44.725215
 20
169.685981
 30
0.0
 0
VERTEX
 8
0
 10
-44.905208
 20
169.493476
 30
0.0
 0
VERTEX
 8
0
 10
-45.057735
 20
169.290976
 30
0.0
 0
VERTEX
 8
0
 10
-45.185207
 20
169.078482
 30
0.0
 0
VERTEX
 8
0
 10
-45.287715
 20
168.858481
 30
0.0
 0
VERTEX
 8
0
 10
-45.365230
 20
168.635978
 30
0.0
 0
VERTEX
 8
0
 10
-45.420223
 20
168.408469
 30
0.0
 0
VERTEX
 8
0
 10
-45.452724
 20
168.185981
 30
0.0
 0
VERTEX
 8
0
 10
-45.462734
 20
167.963477
 30
0.0
 0
VERTEX
 8
0
 10
-45.450221
 20
167.673484
 30
0.0
 0
VERTEX
 8
0
 10
-45.412715
 20
167.400977
 30
0.0
 0
VERTEX
 8
0
 10
-45.350215
 20
167.143470
 30
0.0
 0
VERTEX
 8
0
 10
-45.262721
 20
166.900977
 30
0.0
 0
VERTEX
 8
0
 10
-45.147731
 20
166.673484
 30
0.0
 0
VERTEX
 8
0
 10
-45.007717
 20
166.455970
 30
0.0
 0
VERTEX
 8
0
 10
-44.840236
 20
166.250983
 30
0.0
 0
VERTEX
 8
0
 10
-44.645229
 20
166.055976
 30
0.0
 0
VERTEX
 8
0
 10
-44.422725
 20
165.868476
 30
0.0
 0
VERTEX
 8
0
 10
-44.172725
 20
165.685981
 30
0.0
 0
VERTEX
 8
0
 10
-43.895229
 20
165.510978
 30
0.0
 0
VERTEX
 8
0
 10
-43.585231
 20
165.338477
 30
0.0
 0
VERTEX
 8
0
 10
-43.250209
 20
165.168479
 30
0.0
 0
VERTEX
 8
0
 10
-42.882717
 20
165.000983
 30
0.0
 0
VERTEX
 8
0
 10
-42.485225
 20
164.830970
 30
0.0
 0
VERTEX
 8
0
 10
-42.057735
 20
164.660971
 30
0.0
 0
VERTEX
 8
0
 10
-41.532710
 20
164.448478
 30
0.0
 0
VERTEX
 8
0
 10
-41.040218
 20
164.228476
 30
0.0
 0
VERTEX
 8
0
 10
-40.582729
 20
163.998481
 30
0.0
 0
VERTEX
 8
0
 10
-40.157710
 20
163.758475
 30
0.0
 0
VERTEX
 8
0
 10
-39.767726
 20
163.505973
 30
0.0
 0
VERTEX
 8
0
 10
-39.412715
 20
163.243476
 30
0.0
 0
VERTEX
 8
0
 10
-39.090236
 20
162.963477
 30
0.0
 0
VERTEX
 8
0
 10
-38.800228
 20
162.670981
 30
0.0
 0
VERTEX
 8
0
 10
-38.545223
 20
162.360984
 30
0.0
 0
VERTEX
 8
0
 10
-38.325221
 20
162.035971
 30
0.0
 0
VERTEX
 8
0
 10
-38.140224
 20
161.688483
 30
0.0
 0
VERTEX
 8
0
 10
-37.987728
 20
161.323478
 30
0.0
 0
VERTEX
 8
0
 10
-37.867732
 20
160.935981
 30
0.0
 0
VERTEX
 8
0
 10
-37.782710
 20
160.525977
 30
0.0
 0
VERTEX
 8
0
 10
-37.732723
 20
160.090979
 30
0.0
 0
VERTEX
 8
0
 10
-37.715236
 20
159.633475
 30
0.0
 0
VERTEX
 8
0
 10
-37.737728
 20
159.143470
 30
0.0
 0
VERTEX
 8
0
 10
-37.805232
 20
158.660971
 30
0.0
 0
VERTEX
 8
0
 10
-37.920223
 20
158.195975
 30
0.0
 0
VERTEX
 8
0
 10
-38.080226
 20
157.743476
 30
0.0
 0
VERTEX
 8
0
 10
-38.285213
 20
157.313483
 30
0.0
 0
VERTEX
 8
0
 10
-38.537715
 20
156.903479
 30
0.0
 0
VERTEX
 8
0
 10
-38.837734
 20
156.520972
 30
0.0
 0
VERTEX
 8
0
 10
-39.185207
 20
156.165976
 30
0.0
 0
VERTEX
 8
0
 10
-39.580226
 20
155.840979
 30
0.0
 0
VERTEX
 8
0
 10
-40.020229
 20
155.548484
 30
0.0
 0
VERTEX
 8
0
 10
-40.510219
 20
155.295981
 30
0.0
 0
VERTEX
 8
0
 10
-41.047725
 20
155.080970
 30
0.0
 0
VERTEX
 8
0
 10
-41.635219
 20
154.908484
 30
0.0
 0
VERTEX
 8
0
 10
-42.267726
 20
154.783484
 30
0.0
 0
VERTEX
 8
0
 10
-42.952724
 20
154.705970
 30
0.0
 0
VERTEX
 8
0
 10
-43.685207
 20
154.678473
 30
0.0
 0
VERTEX
 8
0
 10
-44.310207
 20
154.700980
 30
0.0
 0
VERTEX
 8
0
 10
-44.935207
 20
154.768470
 30
0.0
 0
VERTEX
 8
0
 10
-45.550228
 20
154.870978
 30
0.0
 0
VERTEX
 8
0
 10
-46.145229
 20
155.008475
 30
0.0
 0
VERTEX
 8
0
 10
-46.702724
 20
155.173484
 30
0.0
 0
VERTEX
 8
0
 10
-47.215236
 20
155.363471
 30
0.0
 0
VERTEX
 8
0
 10
-47.450221
 20
155.465979
 30
0.0
 0
VERTEX
 8
0
 10
-47.670223
 20
155.573478
 30
0.0
 0
VERTEX
 8
0
 10
-47.870235
 20
155.683478
 30
0.0
 0
VERTEX
 8
0
 10
-48.052730
 20
155.795981
 30
0.0
 0
SEQEND
 8
0
 0
POLYLINE
 8
0
 62
7
 66
 1
 10
0.0
 20
0.0
 30
0.0
 70
1
 0
VERTEX
 8
0
 10
247.597264
 20
198.010978
 30
0.0
 0
VERTEX
 8
0
 10
240.967259
 20
198.010978
 30
0.0
 0
VERTEX
 8
0
 10
240.967259
 20
191.838477
 30
0.0
 0
VERTEX
 8
0
 10
248.384762
 20
191.838477
 30
0.0
 0
VERTEX
 8
0
 10
248.384762
 20
189.985984
 30
0.0
 0
VERTEX
 8
0
 10
238.732258
 20
189.985984
 30
0.0
 0
VERTEX
 8
0
 10
238.732258
 20
207.105979
 30
0.0
 0
VERTEX
 8
0
 10
248.004758
 20
207.105979
 30
0.0
 0
VERTEX
 8
0
 10
248.004758
 20
205.250983
 30
0.0
 0
VERTEX
 8
0
 10
240.967259
 20
205.250983
 30
0.0
 0
VERTEX
 8
0
 10
240.967259
 20
199.840979
 30
0.0
 0
VERTEX
 8
0
 10
247.597264
 20
199.840979
 30
0.0
 0
SEQEND
 8
0
 0
POLYLINE
 8
0
 62
7
 66
 1
 10
0.0
 20
0.0
 30
0.0
 70
1
 0
VERTEX
 8
0
 10
212.827260
 20
189.985984
 30
0.0
 0
VERTEX
 8
0
 10
210.592259
 20
189.985984
 30
0.0
 0
VERTEX
 8
0
 10
210.592259
 20
207.105979
 30
0.0
 0
VERTEX
 8
0
 10
212.827260
 20
207.105979
 30
0.0
 0
SEQEND
 8
0
 0
POLYLINE
 8
0
 62
7
 66
 1
 10
0.0
 20
0.0
 30
0.0
 70
1
 0
VERTEX
 8
0
 10
178.389760
 20
189.985984
 30
0.0
 0
VERTEX
 8
0
 10
172.777272
 20
207.105979
 30
0.0
 0
VERTEX
 8
0
 10
175.189763
 20
207.105979
 30
0.0
 0
VERTEX
 8
0
 10
177.857258
 20
198.673468
 30
0.0
 0
VERTEX
 8
0
 10
178.119771
 20
197.815970
 30
0.0
 0
VERTEX
 8
0
 10
178.374760
 20
196.980979
 30
0.0
 0
VERTEX
 8
0
 10
178.619771
 20
196.160971
 30
0.0
 0
VERTEX
 8
0
 10
178.857258
 20
195.358481
 30
0.0
 0
VERTEX
 8
0
 10
179.294758
 20
193.793479
 30
0.0
 0
VERTEX
 8
0
 10
179.684773
 20
192.270972
 30
0.0
 0
VERTEX
 8
0
 10
179.734761
 20
192.270972
 30
0.0
 0
VERTEX
 8
0
 10
179.924763
 20
193.020972
 30
0.0
 0
VERTEX
 8
0
 10
180.134770
 20
193.788474
 30
0.0
 0
VERTEX
 8
0
 10
180.359761
 20
194.568473
 30
0.0
 0
VERTEX
 8
0
 10
180.599766
 20
195.363471
 30
0.0
 0
VERTEX
 8
0
 10
181.122273
 20
196.985968
 30
0.0
 0
VERTEX
 8
0
 10
181.692265
 20
198.645972
 30
0.0
 0
VERTEX
 8
0
 10
184.587269
 20
207.105979
 30
0.0
 0
VERTEX
 8
0
 10
186.949772
 20
207.105979
 30
0.0
 0
VERTEX
 8
0
 10
180.827260
 20
189.985984
 30
0.0
 0
SEQEND
 8
0
 0
POLYLINE
 8
0
 62
7
 66
 1
 10
0.0
 20
0.0
 30
0.0
 70
1
 0
VERTEX
 8
0
 10
149.552266
 20
207.245978
 30
0.0
 0
VERTEX
 8
0
 10
151.787266
 20
207.245978
 30
0.0
 0
VERTEX
 8
0
 10
151.787266
 20
195.788474
 30
0.0
 0
VERTEX
 8
0
 10
151.779759
 20
195.370978
 30
0.0
 0
VERTEX
 8
0
 10
151.762272
 20
194.973471
 30
0.0
 0
VERTEX
 8
0
 10
151.729771
 20
194.590979
 30
0.0
 0
VERTEX
 8
0
 10
151.684773
 20
194.228476
 30
0.0
 0
VERTEX
 8
0
 10
151.629765
 20
193.880973
 30
0.0
 0
VERTEX
 8
0
 10
151.562260
 20
193.550971
 30
0.0
 0
VERTEX
 8
0
 10
151.482274
 20
193.238471
 30
0.0
 0
VERTEX
 8
0
 10
151.392262
 20
192.940970
 30
0.0
 0
VERTEX
 8
0
 10
151.289769
 20
192.660971
 30
0.0
 0
VERTEX
 8
0
 10
151.179768
 20
192.395972
 30
0.0
 0
VERTEX
 8
0
 10
151.057271
 20
192.145972
 30
0.0
 0
VERTEX
 8
0
 10
150.924763
 20
191.910971
 30
0.0
 0
VERTEX
 8
0
 10
150.632268
 20
191.483481
 30
0.0
 0
VERTEX
 8
0
 10
150.302266
 20
191.110984
 30
0.0
 0
VERTEX
 8
0
 10
149.937260
 20
190.793479
 30
0.0
 0
VERTEX
 8
0
 10
149.539769
 20
190.525977
 30
0.0
 0
VERTEX
 8
0
 10
149.112263
 20
190.308478
 30
0.0
 0
VERTEX
 8
0
 10
148.657261
 20
190.133475
 30
0.0
 0
VERTEX
 8
0
 10
148.177266
 20
190.003470
 30
0.0
 0
VERTEX
 8
0
 10
147.674763
 20
189.913474
 30
0.0
 0
VERTEX
 8
0
 10
147.149769
 20
189.860984
 30
0.0
 0
VERTEX
 8
0
 10
146.604771
 20
189.845969
 30
0.0
 0
VERTEX
 8
0
 10
146.284764
 20
189.853476
 30
0.0
 0
VERTEX
 8
0
 10
145.957265
 20
189.878470
 30
0.0
 0
VERTEX
 8
0
 10
145.309773
 20
189.963477
 30
0.0
 0
VERTEX
 8
0
 10
145.004765
 20
190.023474
 30
0.0
 0
VERTEX
 8
0
 10
144.719761
 20
190.090979
 30
0.0
 0
VERTEX
 8
0
 10
144.462269
 20
190.168479
 30
0.0
 0
VERTEX
 8
0
 10
144.242268
 20
190.250983
 30
0.0
 0
VERTEX
 8
0
 10
144.547261
 20
192.055976
 30
0.0
 0
VERTEX
 8
0
 10
144.727269
 20
191.990973
 30
0.0
 0
VERTEX
 8
0
 10
144.927266
 20
191.928473
 30
0.0
 0
VERTEX
 8
0
 10
145.142262
 20
191.873481
 30
0.0
 0
VERTEX
 8
0
 10
145.372273
 20
191.823478
 30
0.0
 0
VERTEX
 8
0
 10
145.877263
 20
191.750983
 30
0.0
 0
VERTEX
 8
0
 10
146.427266
 20
191.723471
 30
0.0
 0
VERTEX
 8
0
 10
146.789769
 20
191.733481
 30
0.0
 0
VERTEX
 8
0
 10
147.129765
 20
191.768470
 30
0.0
 0
VERTEX
 8
0
 10
147.452260
 20
191.828482
 30
0.0
 0
VERTEX
 8
0
 10
147.752263
 20
191.915976
 30
0.0
 0
VERTEX
 8
0
 10
148.029759
 20
192.030982
 30
0.0
 0
VERTEX
 8
0
 10
148.287266
 20
192.180976
 30
0.0
 0
VERTEX
 8
0
 10
148.522267
 20
192.365973
 30
0.0
 0
VERTEX
 8
0
 10
148.732274
 20
192.588477
 30
0.0
 0
VERTEX
 8
0
 10
148.922261
 20
192.848471
 30
0.0
 0
VERTEX
 8
0
 10
149.087269
 20
193.150977
 30
0.0
 0
VERTEX
 8
0
 10
149.227269
 20
193.495978
 30
0.0
 0
VERTEX
 8
0
 10
149.342259
 20
193.888480
 30
0.0
 0
VERTEX
 8
0
 10
149.434773
 20
194.328482
 30
0.0
 0
VERTEX
 8
0
 10
149.499760
 20
194.820975
 30
0.0
 0
VERTEX
 8
0
 10
149.539769
 20
195.365973
 30
0.0
 0
VERTEX
 8
0
 10
149.552266
 20
195.965979
 30
0.0
 0
SEQEND
 8
0
 0
POLYLINE
 8
0
 62
7
 66
 1
 10
0.0
 20
0.0
 30
0.0
 70
1
 0
VERTEX
 8
0
 10
112.089772
 20
207.245978
 30
0.0
 0
VERTEX
 8
0
 10
112.089772
 20
197.085974
 30
0.0
 0
VERTEX
 8
0
 10
112.109761
 20
196.395972
 30
0.0
 0
VERTEX
 8
0
 10
112.167271
 20
195.758475
 30
0.0
 0
VERTEX
 8
0
 10
112.262272
 20
195.168479
 30
0.0
 0
VERTEX
 8
0
 10
112.392262
 20
194.628470
 30
0.0
 0
VERTEX
 8
0
 10
112.554768
 20
194.135978
 30
0.0
 0
VERTEX
 8
0
 10
112.749760
 20
193.690970
 30
0.0
 0
VERTEX
 8
0
 10
112.974766
 20
193.290976
 30
0.0
 0
VERTEX
 8
0
 10
113.227269
 20
192.938483
 30
0.0
 0
VERTEX
 8
0
 10
113.507268
 20
192.628470
 30
0.0
 0
VERTEX
 8
0
 10
113.812260
 20
192.363471
 30
0.0
 0
VERTEX
 8
0
 10
114.139775
 20
192.140982
 30
0.0
 0
VERTEX
 8
0
 10
114.489766
 20
191.960974
 30
0.0
 0
VERTEX
 8
0
 10
114.859761
 20
191.823478
 30
0.0
 0
VERTEX
 8
0
 10
115.249760
 20
191.725974
 30
0.0
 0
VERTEX
 8
0
 10
115.654774
 20
191.668479
 30
0.0
 0
VERTEX
 8
0
 10
116.077275
 20
191.648474
 30
0.0
 0
VERTEX
 8
0
 10
116.539769
 20
191.668479
 30
0.0
 0
VERTEX
 8
0
 10
116.977269
 20
191.728476
 30
0.0
 0
VERTEX
 8
0
 10
117.394765
 20
191.828482
 30
0.0
 0
VERTEX
 8
0
 10
117.789769
 20
191.968482
 30
0.0
 0
VERTEX
 8
0
 10
118.157261
 20
192.153479
 30
0.0
 0
VERTEX
 8
0
 10
118.502263
 20
192.378470
 30
0.0
 0
VERTEX
 8
0
 10
118.817265
 20
192.645972
 30
0.0
 0
VERTEX
 8
0
 10
119.104771
 20
192.955970
 30
0.0
 0
VERTEX
 8
0
 10
119.362263
 20
193.313483
 30
0.0
 0
VERTEX
 8
0
 10
119.589772
 20
193.713477
 30
0.0
 0
VERTEX
 8
0
 10
119.784764
 20
194.158469
 30
0.0
 0
VERTEX
 8
0
 10
119.947270
 20
194.650977
 30
0.0
 0
VERTEX
 8
0
 10
120.074772
 20
195.188483
 30
0.0
 0
VERTEX
 8
0
 10
120.169774
 20
195.773474
 30
0.0
 0
VERTEX
 8
0
 10
120.224766
 20
196.405982
 30
0.0
 0
VERTEX
 8
0
 10
120.244771
 20
197.085974
 30
0.0
 0
VERTEX
 8
0
 10
120.244771
 20
207.245978
 30
0.0
 0
VERTEX
 8
0
 10
122.479771
 20
207.245978
 30
0.0
 0
VERTEX
 8
0
 10
122.479771
 20
197.235968
 30
0.0
 0
VERTEX
 8
0
 10
122.472264
 20
196.750983
 30
0.0
 0
VERTEX
 8
0
 10
122.447270
 20
196.285971
 30
0.0
 0
VERTEX
 8
0
 10
122.407261
 20
195.838477
 30
0.0
 0
VERTEX
 8
0
 10
122.352269
 20
195.408469
 30
0.0
 0
VERTEX
 8
0
 10
122.284764
 20
194.995978
 30
0.0
 0
VERTEX
 8
0
 10
122.199772
 20
194.600974
 30
0.0
 0
VERTEX
 8
0
 10
122.102269
 20
194.223471
 30
0.0
 0
VERTEX
 8
0
 10
121.989766
 20
193.863471
 30
0.0
 0
VERTEX
 8
0
 10
121.862263
 20
193.518470
 30
0.0
 0
VERTEX
 8
0
 10
121.724766
 20
193.193473
 30
0.0
 0
VERTEX
 8
0
 10
121.572270
 20
192.880973
 30
0.0
 0
VERTEX
 8
0
 10
121.407261
 20
192.588477
 30
0.0
 0
VERTEX
 8
0
 10
121.232274
 20
192.308478
 30
0.0
 0
VERTEX
 8
0
 10
121.042271
 20
192.045981
 30
0.0
 0
VERTEX
 8
0
 10
120.842274
 20
191.800971
 30
0.0
 0
VERTEX
 8
0
 10
120.632268
 20
191.568473
 30
0.0
 0
VERTEX
 8
0
 10
120.409764
 20
191.353476
 30
0.0
 0
VERTEX
 8
0
 10
120.177266
 20
191.153479
 30
0.0
 0
VERTEX
 8
0
 10
119.934773
 20
190.968482
 30
0.0
 0
VERTEX
 8
0
 10
119.682271
 20
190.798484
 30
0.0
 0
VERTEX
 8
0
 10
119.147267
 20
190.500983
 30
0.0
 0
VERTEX
 8
0
 10
118.579762
 20
190.260978
 30
0.0
 0
VERTEX
 8
0
 10
117.977269
 20
190.075980
 30
0.0
 0
VERTEX
 8
0
 10
117.344761
 20
189.948478
 30
0.0
 0
VERTEX
 8
0
 10
116.687260
 20
189.870978
 30
0.0
 0
VERTEX
 8
0
 10
116.002263
 20
189.845969
 30
0.0
 0
VERTEX
 8
0
 10
115.354771
 20
189.868476
 30
0.0
 0
VERTEX
 8
0
 10
114.732274
 20
189.940970
 30
0.0
 0
VERTEX
 8
0
 10
114.132268
 20
190.063483
 30
0.0
 0
VERTEX
 8
0
 10
113.562260
 20
190.238471
 30
0.0
 0
VERTEX
 8
0
 10
113.022267
 20
190.468482
 30
0.0
 0
VERTEX
 8
0
 10
112.517262
 20
190.753470
 30
0.0
 0
VERTEX
 8
0
 10
112.277272
 20
190.918479
 30
0.0
 0
VERTEX
 8
0
 10
112.047261
 20
191.098471
 30
0.0
 0
VERTEX
 8
0
 10
111.824772
 20
191.293479
 30
0.0
 0
VERTEX
 8
0
 10
111.614766
 20
191.503470
 30
0.0
 0
VERTEX
 8
0
 10
111.412266
 20
191.728476
 30
0.0
 0
VERTEX
 8
0
 10
111.222264
 20
191.970969
 30
0.0
 0
VERTEX
 8
0
 10
111.044774
 20
192.228476
 30
0.0
 0
VERTEX
 8
0
 10
110.874760
 20
192.500983
 30
0.0
 0
VERTEX
 8
0
 10
110.719761
 20
192.793479
 30
0.0
 0
VERTEX
 8
0
 10
110.574772
 20
193.100974
 30
0.0
 0
VERTEX
 8
0
 10
110.442265
 20
193.425971
 30
0.0
 0
VERTEX
 8
0
 10
110.322270
 20
193.768470
 30
0.0
 0
VERTEX
 8
0
 10
110.214772
 20
194.125983
 30
0.0
 0
VERTEX
 8
0
 10
110.122288
 20
194.505973
 30
0.0
 0
VERTEX
 8
0
 10
110.042271
 20
194.900977
 30
0.0
 0
VERTEX
 8
0
 10
109.974766
 20
195.315970
 30
0.0
 0
VERTEX
 8
0
 10
109.922276
 20
195.748481
 30
0.0
 0
VERTEX
 8
0
 10
109.884770
 20
196.198478
 30
0.0
 0
VERTEX
 8
0
 10
109.862279
 20
196.670981
 30
0.0
 0
VERTEX
 8
0
 10
109.854771
 20
197.160971
 30
0.0
 0
VERTEX
 8
0
 10
109.854771
 20
207.245978
 30
0.0
 0
SEQEND
 8
0
 0
POLYLINE
 8
0
 62
7
 66
 1
 10
0.0
 20
0.0
 30
0.0
 70
1
 0
VERTEX
 8
0
 10
53.589787
 20
189.985984
 30
0.0
 0
VERTEX
 8
0
 10
51.352269
 20
189.985984
 30
0.0
 0
VERTEX
 8
0
 10
51.352269
 20
207.105979
 30
0.0
 0
VERTEX
 8
0
 10
53.589787
 20
207.105979
 30
0.0
 0
SEQEND
 8
0
 0
POLYLINE
 8
0
 62
7
 66
 1
 10
0.0
 20
0.0
 30
0.0
 70
1
 0
VERTEX
 8
0
 10
24.662266
 20
198.010978
 30
0.0
 0
VERTEX
 8
0
 10
18.032292
 20
198.010978
 30
0.0
 0
VERTEX
 8
0
 10
18.032292
 20
191.838477
 30
0.0
 0
VERTEX
 8
0
 10
25.449772
 20
191.838477
 30
0.0
 0
VERTEX
 8
0
 10
25.449772
 20
189.985984
 30
0.0
 0
VERTEX
 8
0
 10
15.797276
 20
189.985984
 30
0.0
 0
VERTEX
 8
0
 10
15.797276
 20
207.105979
 30
0.0
 0
VERTEX
 8
0
 10
25.067265
 20
207.105979
 30
0.0
 0
VERTEX
 8
0
 10
25.067265
 20
205.250983
 30
0.0
 0
VERTEX
 8
0
 10
18.032292
 20
205.250983
 30
0.0
 0
VERTEX
 8
0
 10
18.032292
 20
199.840979
 30
0.0
 0
VERTEX
 8
0
 10
24.662266
 20
199.840979
 30
0.0
 0
SEQEND
 8
0
 0
POLYLINE
 8
0
 62
7
 66
 1
 10
0.0
 20
0.0
 30
0.0
 70
1
 0
VERTEX
 8
0
 10
276.377263
 20
225.010978
 30
0.0
 0
VERTEX
 8
0
 10
274.142262
 20
225.010978
 30
0.0
 0
VERTEX
 8
0
 10
274.142262
 20
242.130973
 30
0.0
 0
VERTEX
 8
0
 10
276.377263
 20
242.130973
 30
0.0
 0
SEQEND
 8
0
 0
POLYLINE
 8
0
 62
7
 66
 1
 10
0.0
 20
0.0
 30
0.0
 70
1
 0
VERTEX
 8
0
 10
247.484761
 20
233.038474
 30
0.0
 0
VERTEX
 8
0
 10
240.854764
 20
233.038474
 30
0.0
 0
VERTEX
 8
0
 10
240.854764
 20
226.865973
 30
0.0
 0
VERTEX
 8
0
 10
248.272259
 20
226.865973
 30
0.0
 0
VERTEX
 8
0
 10
248.272259
 20
225.010978
 30
0.0
 0
VERTEX
 8
0
 10
238.619763
 20
225.010978
 30
0.0
 0
VERTEX
 8
0
 10
238.619763
 20
242.130973
 30
0.0
 0
VERTEX
 8
0
 10
247.892262
 20
242.130973
 30
0.0
 0
VERTEX
 8
0
 10
247.892262
 20
240.278479
 30
0.0
 0
VERTEX
 8
0
 10
240.854764
 20
240.278479
 30
0.0
 0
VERTEX
 8
0
 10
240.854764
 20
234.865973
 30
0.0
 0
VERTEX
 8
0
 10
247.484761
 20
234.865973
 30
0.0
 0
SEQEND
 8
0
 0
POLYLINE
 8
0
 62
7
 66
 1
 10
0.0
 20
0.0
 30
0.0
 70
1
 0
VERTEX
 8
0
 10
205.524769
 20
225.010978
 30
0.0
 0
VERTEX
 8
0
 10
201.179768
 20
242.130973
 30
0.0
 0
VERTEX
 8
0
 10
203.517262
 20
242.130973
 30
0.0
 0
VERTEX
 8
0
 10
205.549763
 20
233.470969
 30
0.0
 0
VERTEX
 8
0
 10
205.919758
 20
231.878470
 30
0.0
 0
VERTEX
 8
0
 10
206.094761
 20
231.095969
 30
0.0
 0
VERTEX
 8
0
 10
206.259770
 20
230.330970
 30
0.0
 0
VERTEX
 8
0
 10
206.417271
 20
229.588477
 30
0.0
 0
VERTEX
 8
0
 10
206.564763
 20
228.873481
 30
0.0
 0
VERTEX
 8
0
 10
206.697270
 20
228.193473
 30
0.0
 0
VERTEX
 8
0
 10
206.819768
 20
227.550971
 30
0.0
 0
VERTEX
 8
0
 10
206.872258
 20
227.550971
 30
0.0
 0
VERTEX
 8
0
 10
206.987263
 20
228.203482
 30
0.0
 0
VERTEX
 8
0
 10
207.124760
 20
228.888480
 30
0.0
 0
VERTEX
 8
0
 10
207.282261
 20
229.598471
 30
0.0
 0
VERTEX
 8
0
 10
207.454762
 20
230.333472
 30
0.0
 0
VERTEX
 8
0
 10
207.642262
 20
231.093482
 30
0.0
 0
VERTEX
 8
0
 10
207.842259
 20
231.873481
 30
0.0
 0
VERTEX
 8
0
 10
208.052266
 20
232.675971
 30
0.0
 0
VERTEX
 8
0
 10
208.267262
 20
233.495978
 30
0.0
 0
VERTEX
 8
0
 10
210.554768
 20
242.130973
 30
0.0
 0
VERTEX
 8
0
 10
212.864766
 20
242.130973
 30
0.0
 0
VERTEX
 8
0
 10
214.949772
 20
233.445975
 30
0.0
 0
VERTEX
 8
0
 10
215.304768
 20
231.923468
 30
0.0
 0
VERTEX
 8
0
 10
215.632268
 20
230.425971
 30
0.0
 0
VERTEX
 8
0
 10
215.782261
 20
229.690970
 30
0.0
 0
VERTEX
 8
0
 10
215.917271
 20
228.968482
 30
0.0
 0
VERTEX
 8
0
 10
216.037266
 20
228.263480
 30
0.0
 0
VERTEX
 8
0
 10
216.142262
 20
227.575980
 30
0.0
 0
VERTEX
 8
0
 10
216.194768
 20
227.575980
 30
0.0
 0
VERTEX
 8
0
 10
216.484761
 20
228.993476
 30
0.0
 0
VERTEX
 8
0
 10
216.812260
 20
230.440970
 30
0.0
 0
VERTEX
 8
0
 10
216.989766
 20
231.180976
 30
0.0
 0
VERTEX
 8
0
 10
217.174763
 20
231.933478
 30
0.0
 0
VERTEX
 8
0
 10
217.367268
 20
232.705970
 30
0.0
 0
VERTEX
 8
0
 10
217.564763
 20
233.495978
 30
0.0
 0
VERTEX
 8
0
 10
219.827260
 20
242.130973
 30
0.0
 0
VERTEX
 8
0
 10
222.087269
 20
242.130973
 30
0.0
 0
VERTEX
 8
0
 10
217.234761
 20
225.010978
 30
0.0
 0
VERTEX
 8
0
 10
214.924763
 20
225.010978
 30
0.0
 0
VERTEX
 8
0
 10
212.764760
 20
233.925971
 30
0.0
 0
VERTEX
 8
0
 10
212.572270
 20
234.723471
 30
0.0
 0
VERTEX
 8
0
 10
212.397267
 20
235.478476
 30
0.0
 0
VERTEX
 8
0
 10
212.237263
 20
236.198478
 30
0.0
 0
VERTEX
 8
0
 10
212.092259
 20
236.893470
 30
0.0
 0
VERTEX
 8
0
 10
211.959767
 20
237.563468
 30
0.0
 0
VERTEX
 8
0
 10
211.842259
 20
238.220969
 30
0.0
 0
VERTEX
 8
0
 10
211.647267
 20
239.515982
 30
0.0
 0
VERTEX
 8
0
 10
211.597264
 20
239.515982
 30
0.0
 0
VERTEX
 8
0
 10
211.362263
 20
238.235968
 30
0.0
 0
VERTEX
 8
0
 10
211.222264
 20
237.583472
 30
0.0
 0
VERTEX
 8
0
 10
211.069768
 20
236.913474
 30
0.0
 0
VERTEX
 8
0
 10
210.897267
 20
236.218482
 30
0.0
 0
VERTEX
 8
0
 10
210.709767
 20
235.493476
 30
0.0
 0
VERTEX
 8
0
 10
210.502263
 20
234.730979
 30
0.0
 0
VERTEX
 8
0
 10
210.274769
 20
233.925971
 30
0.0
 0
VERTEX
 8
0
 10
207.837269
 20
225.010978
 30
0.0
 0
SEQEND
 8
0
 0
POLYLINE
 8
0
 62
7
 66
 1
 10
0.0
 20
0.0
 30
0.0
 70
1
 0
VERTEX
 8
0
 10
173.572270
 20
226.305976
 30
0.0
 0
VERTEX
 8
0
 10
183.047261
 20
240.200980
 30
0.0
 0
VERTEX
 8
0
 10
183.047261
 20
240.278479
 30
0.0
 0
VERTEX
 8
0
 10
174.384770
 20
240.278479
 30
0.0
 0
VERTEX
 8
0
 10
174.384770
 20
242.130973
 30
0.0
 0
VERTEX
 8
0
 10
185.942265
 20
242.130973
 30
0.0
 0
VERTEX
 8
0
 10
185.942265
 20
240.785971
 30
0.0
 0
VERTEX
 8
0
 10
176.492268
 20
226.940970
 30
0.0
 0
VERTEX
 8
0
 10
176.492268
 20
226.865973
 30
0.0
 0
VERTEX
 8
0
 10
186.069768
 20
226.865973
 30
0.0
 0
VERTEX
 8
0
 10
186.069768
 20
225.010978
 30
0.0
 0
VERTEX
 8
0
 10
173.572270
 20
225.010978
 30
0.0
 0
SEQEND
 8
0
 0
POLYLINE
 8
0
 62
7
 66
 1
 10
0.0
 20
0.0
 30
0.0
 70
1
 0
VERTEX
 8
0
 10
154.154759
 20
232.530982
 30
0.0
 0
VERTEX
 8
0
 10
154.107274
 20
233.448478
 30
0.0
 0
VERTEX
 8
0
 10
154.057271
 20
234.395972
 30
0.0
 0
VERTEX
 8
0
 10
154.009770
 20
235.363471
 30
0.0
 0
VERTEX
 8
0
 10
153.967259
 20
236.330970
 30
0.0
 0
VERTEX
 8
0
 10
153.929768
 20
237.285971
 30
0.0
 0
VERTEX
 8
0
 10
153.899769
 20
238.213477
 30
0.0
 0
VERTEX
 8
0
 10
153.882268
 20
239.095969
 30
0.0
 0
VERTEX
 8
0
 10
153.877263
 20
239.515982
 30
0.0
 0
VERTEX
 8
0
 10
153.874760
 20
239.920981
 30
0.0
 0
VERTEX
 8
0
 10
153.824772
 20
239.920981
 30
0.0
 0
VERTEX
 8
0
 10
153.592259
 20
239.170981
 30
0.0
 0
VERTEX
 8
0
 10
153.352269
 20
238.400977
 30
0.0
 0
VERTEX
 8
0
 10
153.102269
 20
237.615973
 30
0.0
 0
VERTEX
 8
0
 10
152.839772
 20
236.813468
 30
0.0
 0
VERTEX
 8
0
 10
152.567265
 20
235.990973
 30
0.0
 0
VERTEX
 8
0
 10
152.282261
 20
235.153479
 30
0.0
 0
VERTEX
 8
0
 10
151.979771
 20
234.295981
 30
0.0
 0
VERTEX
 8
0
 10
151.664769
 20
233.418479
 30
0.0
 0
VERTEX
 8
0
 10
148.642262
 20
225.113471
 30
0.0
 0
VERTEX
 8
0
 10
146.967274
 20
225.113471
 30
0.0
 0
VERTEX
 8
0
 10
144.172261
 20
233.265982
 30
0.0
 0
VERTEX
 8
0
 10
143.874760
 20
234.168479
 30
0.0
 0
VERTEX
 8
0
 10
143.592274
 20
235.050971
 30
0.0
 0
VERTEX
 8
0
 10
143.322270
 20
235.908469
 30
0.0
 0
VERTEX
 8
0
 10
143.069768
 20
236.748481
 30
0.0
 0
VERTEX
 8
0
 10
142.832265
 20
237.565970
 30
0.0
 0
VERTEX
 8
0
 10
142.609761
 20
238.368476
 30
0.0
 0
VERTEX
 8
0
 10
142.404774
 20
239.153479
 30
0.0
 0
VERTEX
 8
0
 10
142.214772
 20
239.920981
 30
0.0
 0
VERTEX
 8
0
 10
142.164769
 20
239.920981
 30
0.0
 0
VERTEX
 8
0
 10
142.154774
 20
239.513480
 30
0.0
 0
VERTEX
 8
0
 10
142.142262
 20
239.090979
 30
0.0
 0
VERTEX
 8
0
 10
142.114766
 20
238.203482
 30
0.0
 0
VERTEX
 8
0
 10
142.079762
 20
237.270972
 30
0.0
 0
VERTEX
 8
0
 10
142.037266
 20
236.308478
 30
0.0
 0
VERTEX
 8
0
 10
141.992268
 20
235.323478
 30
0.0
 0
VERTEX
 8
0
 10
141.944768
 20
234.328482
 30
0.0
 0
VERTEX
 8
0
 10
141.889760
 20
233.333472
 30
0.0
 0
VERTEX
 8
0
 10
141.834767
 20
232.350974
 30
0.0
 0
VERTEX
 8
0
 10
141.377263
 20
225.010978
 30
0.0
 0
VERTEX
 8
0
 10
139.269765
 20
225.010978
 30
0.0
 0
VERTEX
 8
0
 10
140.462269
 20
242.130973
 30
0.0
 0
VERTEX
 8
0
 10
143.282261
 20
242.130973
 30
0.0
 0
VERTEX
 8
0
 10
146.204762
 20
233.850974
 30
0.0
 0
VERTEX
 8
0
 10
146.464772
 20
233.070975
 30
0.0
 0
VERTEX
 8
0
 10
146.709767
 20
232.310981
 30
0.0
 0
VERTEX
 8
0
 10
146.942265
 20
231.568473
 30
0.0
 0
VERTEX
 8
0
 10
147.162266
 20
230.845969
 30
0.0
 0
VERTEX
 8
0
 10
147.372273
 20
230.135978
 30
0.0
 0
VERTEX
 8
0
 10
147.569768
 20
229.440970
 30
0.0
 0
VERTEX
 8
0
 10
147.932271
 20
228.085974
 30
0.0
 0
VERTEX
 8
0
 10
147.982274
 20
228.085974
 30
0.0
 0
VERTEX
 8
0
 10
148.159764
 20
228.740973
 30
0.0
 0
VERTEX
 8
0
 10
148.354771
 20
229.410971
 30
0.0
 0
VERTEX
 8
0
 10
148.562260
 20
230.098471
 30
0.0
 0
VERTEX
 8
0
 10
148.782261
 20
230.805976
 30
0.0
 0
VERTEX
 8
0
 10
149.017262
 20
231.533469
 30
0.0
 0
VERTEX
 8
0
 10
149.267262
 20
232.280982
 30
0.0
 0
VERTEX
 8
0
 10
149.532261
 20
233.053473
 30
0.0
 0
VERTEX
 8
0
 10
149.809773
 20
233.850974
 30
0.0
 0
VERTEX
 8
0
 10
152.859761
 20
242.130973
 30
0.0
 0
VERTEX
 8
0
 10
155.679768
 20
242.130973
 30
0.0
 0
VERTEX
 8
0
 10
156.744771
 20
225.010978
 30
0.0
 0
VERTEX
 8
0
 10
154.562260
 20
225.010978
 30
0.0
 0
SEQEND
 8
0
 0
POLYLINE
 8
0
 62
7
 66
 1
 10
0.0
 20
0.0
 30
0.0
 70
1
 0
VERTEX
 8
0
 10
117.387272
 20
244.830970
 30
0.0
 0
VERTEX
 8
0
 10
117.412266
 20
245.083472
 30
0.0
 0
VERTEX
 8
0
 10
117.482274
 20
245.320975
 30
0.0
 0
VERTEX
 8
0
 10
117.594761
 20
245.535971
 30
0.0
 0
VERTEX
 8
0
 10
117.747273
 20
245.725974
 30
0.0
 0
VERTEX
 8
0
 10
117.932271
 20
245.880973
 30
0.0
 0
VERTEX
 8
0
 10
118.149769
 20
246.000968
 30
0.0
 0
VERTEX
 8
0
 10
118.392262
 20
246.075980
 30
0.0
 0
VERTEX
 8
0
 10
118.657261
 20
246.103476
 30
0.0
 0
VERTEX
 8
0
 10
118.914769
 20
246.078482
 30
0.0
 0
VERTEX
 8
0
 10
119.147267
 20
246.005973
 30
0.0
 0
VERTEX
 8
0
 10
119.357274
 20
245.888480
 30
0.0
 0
VERTEX
 8
0
 10
119.534764
 20
245.733481
 30
0.0
 0
VERTEX
 8
0
 10
119.679768
 20
245.545981
 30
0.0
 0
VERTEX
 8
0
 10
119.787266
 20
245.330970
 30
0.0
 0
VERTEX
 8
0
 10
119.854771
 20
245.090979
 30
0.0
 0
VERTEX
 8
0
 10
119.877263
 20
244.830970
 30
0.0
 0
VERTEX
 8
0
 10
119.854771
 20
244.570975
 30
0.0
 0
VERTEX
 8
0
 10
119.789769
 20
244.328482
 30
0.0
 0
VERTEX
 8
0
 10
119.682271
 20
244.108481
 30
0.0
 0
VERTEX
 8
0
 10
119.537266
 20
243.918479
 30
0.0
 0
VERTEX
 8
0
 10
119.354771
 20
243.758475
 30
0.0
 0
VERTEX
 8
0
 10
119.137272
 20
243.638480
 30
0.0
 0
VERTEX
 8
0
 10
118.887272
 20
243.563468
 30
0.0
 0
VERTEX
 8
0
 10
118.607274
 20
243.535971
 30
0.0
 0
VERTEX
 8
0
 10
118.349766
 20
243.563468
 30
0.0
 0
VERTEX
 8
0
 10
118.117268
 20
243.638480
 30
0.0
 0
VERTEX
 8
0
 10
117.907261
 20
243.758475
 30
0.0
 0
VERTEX
 8
0
 10
117.729771
 20
243.918479
 30
0.0
 0
VERTEX
 8
0
 10
117.584767
 20
244.108481
 30
0.0
 0
VERTEX
 8
0
 10
117.477269
 20
244.328482
 30
0.0
 0
VERTEX
 8
0
 10
117.409764
 20
244.570975
 30
0.0
 0
SEQEND
 8
0
 0
POLYLINE
 8
0
 62
7
 66
 1
 10
0.0
 20
0.0
 30
0.0
 70
1
 0
VERTEX
 8
0
 10
112.662266
 20
244.830970
 30
0.0
 0
VERTEX
 8
0
 10
112.687260
 20
245.083472
 30
0.0
 0
VERTEX
 8
0
 10
112.757268
 20
245.320975
 30
0.0
 0
VERTEX
 8
0
 10
112.869771
 20
245.535971
 30
0.0
 0
VERTEX
 8
0
 10
113.017262
 20
245.725974
 30
0.0
 0
VERTEX
 8
0
 10
113.202275
 20
245.880973
 30
0.0
 0
VERTEX
 8
0
 10
113.412266
 20
246.000968
 30
0.0
 0
VERTEX
 8
0
 10
113.649769
 20
246.075980
 30
0.0
 0
VERTEX
 8
0
 10
113.907261
 20
246.103476
 30
0.0
 0
VERTEX
 8
0
 10
114.164769
 20
246.078482
 30
0.0
 0
VERTEX
 8
0
 10
114.397267
 20
246.005973
 30
0.0
 0
VERTEX
 8
0
 10
114.607274
 20
245.888480
 30
0.0
 0
VERTEX
 8
0
 10
114.784764
 20
245.733481
 30
0.0
 0
VERTEX
 8
0
 10
114.929768
 20
245.545981
 30
0.0
 0
VERTEX
 8
0
 10
115.037266
 20
245.330970
 30
0.0
 0
VERTEX
 8
0
 10
115.104771
 20
245.090979
 30
0.0
 0
VERTEX
 8
0
 10
115.127263
 20
244.830970
 30
0.0
 0
VERTEX
 8
0
 10
115.104771
 20
244.570975
 30
0.0
 0
VERTEX
 8
0
 10
115.039769
 20
244.328482
 30
0.0
 0
VERTEX
 8
0
 10
114.934773
 20
244.108481
 30
0.0
 0
VERTEX
 8
0
 10
114.789769
 20
243.918479
 30
0.0
 0
VERTEX
 8
0
 10
114.612263
 20
243.758475
 30
0.0
 0
VERTEX
 8
0
 10
114.397267
 20
243.638480
 30
0.0
 0
VERTEX
 8
0
 10
114.154774
 20
243.563468
 30
0.0
 0
VERTEX
 8
0
 10
113.882268
 20
243.535971
 30
0.0
 0
VERTEX
 8
0
 10
113.624760
 20
243.563468
 30
0.0
 0
VERTEX
 8
0
 10
113.392262
 20
243.638480
 30
0.0
 0
VERTEX
 8
0
 10
113.184773
 20
243.758475
 30
0.0
 0
VERTEX
 8
0
 10
113.004765
 20
243.918479
 30
0.0
 0
VERTEX
 8
0
 10
112.862263
 20
244.108481
 30
0.0
 0
VERTEX
 8
0
 10
112.752263
 20
244.328482
 30
0.0
 0
VERTEX
 8
0
 10
112.684773
 20
244.570975
 30
0.0
 0
SEQEND
 8
0
 0
POLYLINE
 8
0
 62
7
 66
 1
 10
0.0
 20
0.0
 30
0.0
 70
1
 0
VERTEX
 8
0
 10
88.432286
 20
225.010978
 30
0.0
 0
VERTEX
 8
0
 10
86.222264
 20
228.795981
 30
0.0
 0
VERTEX
 8
0
 10
85.904790
 20
229.315970
 30
0.0
 0
VERTEX
 8
0
 10
85.617283
 20
229.795981
 30
0.0
 0
VERTEX
 8
0
 10
85.352269
 20
230.238471
 30
0.0
 0
VERTEX
 8
0
 10
85.109776
 20
230.655982
 30
0.0
 0
VERTEX
 8
0
 10
84.884770
 20
231.050971
 30
0.0
 0
VERTEX
 8
0
 10
84.672276
 20
231.430976
 30
0.0
 0
VERTEX
 8
0
 10
84.267277
 20
232.173468
 30
0.0
 0
VERTEX
 8
0
 10
84.214787
 20
232.173468
 30
0.0
 0
VERTEX
 8
0
 10
83.844761
 20
231.435981
 30
0.0
 0
VERTEX
 8
0
 10
83.644780
 20
231.055976
 30
0.0
 0
VERTEX
 8
0
 10
83.432286
 20
230.663474
 30
0.0
 0
VERTEX
 8
0
 10
83.199772
 20
230.243476
 30
0.0
 0
VERTEX
 8
0
 10
82.947270
 20
229.795981
 30
0.0
 0
VERTEX
 8
0
 10
82.669774
 20
229.305976
 30
0.0
 0
VERTEX
 8
0
 10
82.362279
 20
228.770972
 30
0.0
 0
VERTEX
 8
0
 10
80.304783
 20
225.010978
 30
0.0
 0
VERTEX
 8
0
 10
77.764775
 20
225.010978
 30
0.0
 0
VERTEX
 8
0
 10
82.997288
 20
233.673468
 30
0.0
 0
VERTEX
 8
0
 10
77.967290
 20
242.130973
 30
0.0
 0
VERTEX
 8
0
 10
80.532261
 20
242.130973
 30
0.0
 0
VERTEX
 8
0
 10
82.794774
 20
238.118476
 30
0.0
 0
VERTEX
 8
0
 10
83.024785
 20
237.710974
 30
0.0
 0
VERTEX
 8
0
 10
83.242283
 20
237.323478
 30
0.0
 0
VERTEX
 8
0
 10
83.449772
 20
236.953482
 30
0.0
 0
VERTEX
 8
0
 10
83.647282
 20
236.595969
 30
0.0
 0
VERTEX
 8
0
 10
84.017277
 20
235.903479
 30
0.0
 0
VERTEX
 8
0
 10
84.367283
 20
235.223471
 30
0.0
 0
VERTEX
 8
0
 10
84.444768
 20
235.223471
 30
0.0
 0
VERTEX
 8
0
 10
84.624791
 20
235.593482
 30
0.0
 0
VERTEX
 8
0
 10
84.802281
 20
235.950980
 30
0.0
 0
VERTEX
 8
0
 10
85.162266
 20
236.640982
 30
0.0
 0
VERTEX
 8
0
 10
85.352269
 20
236.990973
 30
0.0
 0
VERTEX
 8
0
 10
85.552281
 20
237.348471
 30
0.0
 0
VERTEX
 8
0
 10
85.764775
 20
237.720969
 30
0.0
 0
VERTEX
 8
0
 10
85.994786
 20
238.118476
 30
0.0
 0
VERTEX
 8
0
 10
88.304783
 20
242.130973
 30
0.0
 0
VERTEX
 8
0
 10
90.869786
 20
242.130973
 30
0.0
 0
VERTEX
 8
0
 10
85.664769
 20
233.800971
 30
0.0
 0
VERTEX
 8
0
 10
90.997288
 20
225.010978
 30
0.0
 0
SEQEND
 8
0
 0
POLYLINE
 8
0
 62
7
 66
 1
 10
0.0
 20
0.0
 30
0.0
 70
1
 0
VERTEX
 8
0
 10
47.982274
 20
227.703482
 30
0.0
 0
VERTEX
 8
0
 10
48.372288
 20
227.473471
 30
0.0
 0
VERTEX
 8
0
 10
48.802281
 20
227.260978
 30
0.0
 0
VERTEX
 8
0
 10
49.262272
 20
227.070975
 30
0.0
 0
VERTEX
 8
0
 10
49.752263
 20
226.905982
 30
0.0
 0
VERTEX
 8
0
 10
50.264775
 20
226.770972
 30
0.0
 0
VERTEX
 8
0
 10
50.802281
 20
226.670981
 30
0.0
 0
VERTEX
 8
0
 10
51.354771
 20
226.608481
 30
0.0
 0
VERTEX
 8
0
 10
51.919774
 20
226.585974
 30
0.0
 0
VERTEX
 8
0
 10
52.332280
 20
226.600974
 30
0.0
 0
VERTEX
 8
0
 10
52.722264
 20
226.640982
 30
0.0
 0
VERTEX
 8
0
 10
53.089787
 20
226.708472
 30
0.0
 0
VERTEX
 8
0
 10
53.432286
 20
226.798468
 30
0.0
 0
VERTEX
 8
0
 10
53.752263
 20
226.915976
 30
0.0
 0
VERTEX
 8
0
 10
54.047276
 20
227.053473
 30
0.0
 0
VERTEX
 8
0
 10
54.314763
 20
227.215979
 30
0.0
 0
VERTEX
 8
0
 10
54.559788
 20
227.398474
 30
0.0
 0
VERTEX
 8
0
 10
54.774785
 20
227.600974
 30
0.0
 0
VERTEX
 8
0
 10
54.964787
 20
227.823478
 30
0.0
 0
VERTEX
 8
0
 10
55.127263
 20
228.063468
 30
0.0
 0
VERTEX
 8
0
 10
55.259770
 20
228.320975
 30
0.0
 0
VERTEX
 8
0
 10
55.364781
 20
228.595969
 30
0.0
 0
VERTEX
 8
0
 10
55.442265
 20
228.883475
 30
0.0
 0
VERTEX
 8
0
 10
55.487279
 20
229.188468
 30
0.0
 0
VERTEX
 8
0
 10
55.502263
 20
229.505973
 30
0.0
 0
VERTEX
 8
0
 10
55.492283
 20
229.793479
 30
0.0
 0
VERTEX
 8
0
 10
55.457280
 20
230.068473
 30
0.0
 0
VERTEX
 8
0
 10
55.402287
 20
230.328482
 30
0.0
 0
VERTEX
 8
0
 10
55.322270
 20
230.578482
 30
0.0
 0
VERTEX
 8
0
 10
55.219761
 20
230.813468
 30
0.0
 0
VERTEX
 8
0
 10
55.089787
 20
231.040976
 30
0.0
 0
VERTEX
 8
0
 10
54.937291
 20
231.255973
 30
0.0
 0
VERTEX
 8
0
 10
54.754765
 20
231.463477
 30
0.0
 0
VERTEX
 8
0
 10
54.547276
 20
231.660971
 30
0.0
 0
VERTEX
 8
0
 10
54.312291
 20
231.853476
 30
0.0
 0
VERTEX
 8
0
 10
54.047276
 20
232.035971
 30
0.0
 0
VERTEX
 8
0
 10
53.754765
 20
232.215979
 30
0.0
 0
VERTEX
 8
0
 10
53.432286
 20
232.388480
 30
0.0
 0
VERTEX
 8
0
 10
53.077275
 20
232.555976
 30
0.0
 0
VERTEX
 8
0
 10
52.692265
 20
232.723471
 30
0.0
 0
VERTEX
 8
0
 10
52.274785
 20
232.885978
 30
0.0
 0
VERTEX
 8
0
 10
51.764775
 20
233.080970
 30
0.0
 0
VERTEX
 8
0
 10
51.279790
 20
233.288474
 30
0.0
 0
VERTEX
 8
0
 10
50.819768
 20
233.508475
 30
0.0
 0
VERTEX
 8
0
 10
50.389775
 20
233.740973
 30
0.0
 0
VERTEX
 8
0
 10
49.989781
 20
233.985968
 30
0.0
 0
VERTEX
 8
0
 10
49.617283
 20
234.245978
 30
0.0
 0
VERTEX
 8
0
 10
49.277287
 20
234.520972
 30
0.0
 0
VERTEX
 8
0
 10
48.967290
 20
234.810981
 30
0.0
 0
VERTEX
 8
0
 10
48.692265
 20
235.115973
 30
0.0
 0
VERTEX
 8
0
 10
48.449772
 20
235.438468
 30
0.0
 0
VERTEX
 8
0
 10
48.239781
 20
235.778479
 30
0.0
 0
VERTEX
 8
0
 10
48.067265
 20
236.135978
 30
0.0
 0
VERTEX
 8
0
 10
47.932286
 20
236.513480
 30
0.0
 0
VERTEX
 8
0
 10
47.834782
 20
236.910971
 30
0.0
 0
VERTEX
 8
0
 10
47.774785
 20
237.325980
 30
0.0
 0
VERTEX
 8
0
 10
47.754765
 20
237.763480
 30
0.0
 0
VERTEX
 8
0
 10
47.779790
 20
238.255973
 30
0.0
 0
VERTEX
 8
0
 10
47.857274
 20
238.728476
 30
0.0
 0
VERTEX
 8
0
 10
47.979771
 20
239.183478
 30
0.0
 0
VERTEX
 8
0
 10
48.152287
 20
239.615973
 30
0.0
 0
VERTEX
 8
0
 10
48.369786
 20
240.023474
 30
0.0
 0
VERTEX
 8
0
 10
48.629765
 20
240.405982
 30
0.0
 0
VERTEX
 8
0
 10
48.932286
 20
240.760978
 30
0.0
 0
VERTEX
 8
0
 10
49.274785
 20
241.088477
 30
0.0
 0
VERTEX
 8
0
 10
49.657261
 20
241.383475
 30
0.0
 0
VERTEX
 8
0
 10
50.077275
 20
241.643470
 30
0.0
 0
VERTEX
 8
0
 10
50.532261
 20
241.870978
 30
0.0
 0
VERTEX
 8
0
 10
51.022282
 20
242.060981
 30
0.0
 0
VERTEX
 8
0
 10
51.544774
 20
242.210974
 30
0.0
 0
VERTEX
 8
0
 10
52.099766
 20
242.320975
 30
0.0
 0
VERTEX
 8
0
 10
52.682286
 20
242.388480
 30
0.0
 0
VERTEX
 8
0
 10
53.292271
 20
242.410971
 30
0.0
 0
VERTEX
 8
0
 10
53.919774
 20
242.393470
 30
0.0
 0
VERTEX
 8
0
 10
54.504765
 20
242.340979
 30
0.0
 0
VERTEX
 8
0
 10
55.047276
 20
242.260978
 30
0.0
 0
VERTEX
 8
0
 10
55.542271
 20
242.153479
 30
0.0
 0
VERTEX
 8
0
 10
55.994786
 20
242.028479
 30
0.0
 0
VERTEX
 8
0
 10
56.397282
 20
241.885978
 30
0.0
 0
VERTEX
 8
0
 10
56.749791
 20
241.733481
 30
0.0
 0
VERTEX
 8
0
 10
57.052281
 20
241.573478
 30
0.0
 0
VERTEX
 8
0
 10
56.442265
 20
239.770972
 30
0.0
 0
VERTEX
 8
0
 10
56.214787
 20
239.900977
 30
0.0
 0
VERTEX
 8
0
 10
55.929783
 20
240.035971
 30
0.0
 0
VERTEX
 8
0
 10
55.594761
 20
240.173468
 30
0.0
 0
VERTEX
 8
0
 10
55.209782
 20
240.300971
 30
0.0
 0
VERTEX
 8
0
 10
54.777287
 20
240.413474
 30
0.0
 0
VERTEX
 8
0
 10
54.297276
 20
240.503470
 30
0.0
 0
VERTEX
 8
0
 10
53.777287
 20
240.560981
 30
0.0
 0
VERTEX
 8
0
 10
53.214787
 20
240.583472
 30
0.0
 0
VERTEX
 8
0
 10
52.792271
 20
240.568473
 30
0.0
 0
VERTEX
 8
0
 10
52.404790
 20
240.520972
 30
0.0
 0
VERTEX
 8
0
 10
52.049779
 20
240.445975
 30
0.0
 0
VERTEX
 8
0
 10
51.724766
 20
240.345969
 30
0.0
 0
VERTEX
 8
0
 10
51.429783
 20
240.223471
 30
0.0
 0
VERTEX
 8
0
 10
51.167271
 20
240.078482
 30
0.0
 0
VERTEX
 8
0
 10
50.932286
 20
239.915976
 30
0.0
 0
VERTEX
 8
0
 10
50.724766
 20
239.738471
 30
0.0
 0
VERTEX
 8
0
 10
50.547276
 20
239.545981
 30
0.0
 0
VERTEX
 8
0
 10
50.394780
 20
239.343482
 30
0.0
 0
VERTEX
 8
0
 10
50.267277
 20
239.130973
 30
0.0
 0
VERTEX
 8
0
 10
50.164769
 20
238.910971
 30
0.0
 0
VERTEX
 8
0
 10
50.087285
 20
238.688468
 30
0.0
 0
VERTEX
 8
0
 10
50.032261
 20
238.460974
 30
0.0
 0
VERTEX
 8
0
 10
49.999791
 20
238.238471
 30
0.0
 0
VERTEX
 8
0
 10
49.989781
 20
238.015982
 30
0.0
 0
VERTEX
 8
0
 10
50.002263
 20
237.725974
 30
0.0
 0
VERTEX
 8
0
 10
50.039769
 20
237.453482
 30
0.0
 0
VERTEX
 8
0
 10
50.102269
 20
237.195975
 30
0.0
 0
VERTEX
 8
0
 10
50.189763
 20
236.953482
 30
0.0
 0
VERTEX
 8
0
 10
50.304783
 20
236.725974
 30
0.0
 0
VERTEX
 8
0
 10
50.444768
 20
236.508475
 30
0.0
 0
VERTEX
 8
0
 10
50.612279
 20
236.303473
 30
0.0
 0
VERTEX
 8
0
 10
50.807286
 20
236.108481
 30
0.0
 0
VERTEX
 8
0
 10
51.027287
 20
235.920981
 30
0.0
 0
VERTEX
 8
0
 10
51.279790
 20
235.738471
 30
0.0
 0
VERTEX
 8
0
 10
51.557286
 20
235.563468
 30
0.0
 0
VERTEX
 8
0
 10
51.864781
 20
235.390982
 30
0.0
 0
VERTEX
 8
0
 10
52.202275
 20
235.223471
 30
0.0
 0
VERTEX
 8
0
 10
52.567265
 20
235.053473
 30
0.0
 0
VERTEX
 8
0
 10
52.964787
 20
234.885978
 30
0.0
 0
VERTEX
 8
0
 10
53.392277
 20
234.715979
 30
0.0
 0
VERTEX
 8
0
 10
53.919774
 20
234.503470
 30
0.0
 0
VERTEX
 8
0
 10
54.409764
 20
234.280982
 30
0.0
 0
VERTEX
 8
0
 10
54.869786
 20
234.053473
 30
0.0
 0
VERTEX
 8
0
 10
55.294774
 20
233.813468
 30
0.0
 0
VERTEX
 8
0
 10
55.684788
 20
233.560981
 30
0.0
 0
VERTEX
 8
0
 10
56.039769
 20
233.295981
 30
0.0
 0
VERTEX
 8
0
 10
56.362279
 20
233.018470
 30
0.0
 0
VERTEX
 8
0
 10
56.652287
 20
232.725974
 30
0.0
 0
VERTEX
 8
0
 10
56.904790
 20
232.415976
 30
0.0
 0
VERTEX
 8
0
 10
57.127263
 20
232.088477
 30
0.0
 0
VERTEX
 8
0
 10
57.312291
 20
231.740973
 30
0.0
 0
VERTEX
 8
0
 10
57.464787
 20
231.375968
 30
0.0
 0
VERTEX
 8
0
 10
57.584782
 20
230.988471
 30
0.0
 0
VERTEX
 8
0
 10
57.669774
 20
230.578482
 30
0.0
 0
VERTEX
 8
0
 10
57.719761
 20
230.143470
 30
0.0
 0
VERTEX
 8
0
 10
57.737279
 20
229.685981
 30
0.0
 0
VERTEX
 8
0
 10
57.714787
 20
229.195975
 30
0.0
 0
VERTEX
 8
0
 10
57.647282
 20
228.713477
 30
0.0
 0
VERTEX
 8
0
 10
57.532261
 20
228.248481
 30
0.0
 0
VERTEX
 8
0
 10
57.372288
 20
227.795981
 30
0.0
 0
VERTEX
 8
0
 10
57.167271
 20
227.365973
 30
0.0
 0
VERTEX
 8
0
 10
56.914769
 20
226.955970
 30
0.0
 0
VERTEX
 8
0
 10
56.614781
 20
226.573478
 30
0.0
 0
VERTEX
 8
0
 10
56.267277
 20
226.218482
 30
0.0
 0
VERTEX
 8
0
 10
55.872288
 20
225.893470
 30
0.0
 0
VERTEX
 8
0
 10
55.432286
 20
225.600974
 30
0.0
 0
VERTEX
 8
0
 10
54.942265
 20
225.348471
 30
0.0
 0
VERTEX
 8
0
 10
54.404790
 20
225.133475
 30
0.0
 0
VERTEX
 8
0
 10
53.817265
 20
224.960974
 30
0.0
 0
VERTEX
 8
0
 10
53.184788
 20
224.835974
 30
0.0
 0
VERTEX
 8
0
 10
52.499791
 20
224.758475
 30
0.0
 0
VERTEX
 8
0
 10
51.767277
 20
224.730979
 30
0.0
 0
VERTEX
 8
0
 10
51.142277
 20
224.753470
 30
0.0
 0
VERTEX
 8
0
 10
50.517277
 20
224.820975
 30
0.0
 0
VERTEX
 8
0
 10
49.899785
 20
224.923468
 30
0.0
 0
VERTEX
 8
0
 10
49.307286
 20
225.060981
 30
0.0
 0
VERTEX
 8
0
 10
48.747288
 20
225.225974
 30
0.0
 0
VERTEX
 8
0
 10
48.234776
 20
225.415976
 30
0.0
 0
VERTEX
 8
0
 10
47.999791
 20
225.518470
 30
0.0
 0
VERTEX
 8
0
 10
47.779790
 20
225.625968
 30
0.0
 0
VERTEX
 8
0
 10
47.579777
 20
225.735968
 30
0.0
 0
VERTEX
 8
0
 10
47.397282
 20
225.848471
 30
0.0
 0
SEQEND
 8
0
 0
POLYLINE
 8
0
 62
7
 66
 1
 10
0.0
 20
0.0
 30
0.0
 70
1
 0
VERTEX
 8
0
 10
14.327275
 20
225.010978
 30
0.0
 0
VERTEX
 8
0
 10
14.327275
 20
242.130973
 30
0.0
 0
VERTEX
 8
0
 10
16.767277
 20
242.130973
 30
0.0
 0
VERTEX
 8
0
 10
22.227269
 20
233.470969
 30
0.0
 0
VERTEX
 8
0
 10
22.682286
 20
232.728476
 30
0.0
 0
VERTEX
 8
0
 10
23.117283
 20
232.000968
 30
0.0
 0
VERTEX
 8
0
 10
23.532292
 20
231.290976
 30
0.0
 0
VERTEX
 8
0
 10
23.922276
 20
230.593482
 30
0.0
 0
VERTEX
 8
0
 10
24.292271
 20
229.908469
 30
0.0
 0
VERTEX
 8
0
 10
24.642277
 20
229.233481
 30
0.0
 0
VERTEX
 8
0
 10
24.969792
 20
228.565970
 30
0.0
 0
VERTEX
 8
0
 10
25.277287
 20
227.905982
 30
0.0
 0
VERTEX
 8
0
 10
25.352269
 20
227.933478
 30
0.0
 0
VERTEX
 8
0
 10
25.282292
 20
228.783469
 30
0.0
 0
VERTEX
 8
0
 10
25.227269
 20
229.620978
 30
0.0
 0
VERTEX
 8
0
 10
25.182286
 20
230.460974
 30
0.0
 0
VERTEX
 8
0
 10
25.149785
 20
231.308478
 30
0.0
 0
VERTEX
 8
0
 10
25.124791
 20
232.173468
 30
0.0
 0
VERTEX
 8
0
 10
25.109776
 20
233.065970
 30
0.0
 0
VERTEX
 8
0
 10
25.099766
 20
233.993476
 30
0.0
 0
VERTEX
 8
0
 10
25.097264
 20
234.968482
 30
0.0
 0
VERTEX
 8
0
 10
25.097264
 20
242.130973
 30
0.0
 0
VERTEX
 8
0
 10
27.182286
 20
242.130973
 30
0.0
 0
VERTEX
 8
0
 10
27.182286
 20
225.010978
 30
0.0
 0
VERTEX
 8
0
 10
24.944768
 20
225.010978
 30
0.0
 0
VERTEX
 8
0
 10
19.509770
 20
233.698478
 30
0.0
 0
VERTEX
 8
0
 10
18.627263
 20
235.133475
 30
0.0
 0
VERTEX
 8
0
 10
18.199772
 20
235.855979
 30
0.0
 0
VERTEX
 8
0
 10
17.787266
 20
236.575980
 30
0.0
 0
VERTEX
 8
0
 10
17.392277
 20
237.293479
 30
0.0
 0
VERTEX
 8
0
 10
17.017277
 20
238.005973
 30
0.0
 0
VERTEX
 8
0
 10
16.662266
 20
238.713477
 30
0.0
 0
VERTEX
 8
0
 10
16.334782
 20
239.413474
 30
0.0
 0
VERTEX
 8
0
 10
16.257268
 20
239.388480
 30
0.0
 0
VERTEX
 8
0
 10
16.334782
 20
237.775977
 30
0.0
 0
VERTEX
 8
0
 10
16.362279
 20
236.955970
 30
0.0
 0
VERTEX
 8
0
 10
16.382268
 20
236.115973
 30
0.0
 0
VERTEX
 8
0
 10
16.394780
 20
235.240973
 30
0.0
 0
VERTEX
 8
0
 10
16.404790
 20
234.325980
 30
0.0
 0
VERTEX
 8
0
 10
16.407292
 20
233.848471
 30
0.0
 0
VERTEX
 8
0
 10
16.407292
 20
233.358481
 30
0.0
 0
VERTEX
 8
0
 10
16.409764
 20
232.850974
 30
0.0
 0
VERTEX
 8
0
 10
16.409764
 20
232.325980
 30
0.0
 0
VERTEX
 8
0
 10
16.409764
 20
225.010978
 30
0.0
 0
SEQEND
 8
0
 0
POLYLINE
 8
0
 62
7
 66
 1
 10
0.0
 20
0.0
 30
0.0
 70
1
 0
VERTEX
 8
0
 10
-9.940212
 20
225.010978
 30
0.0
 0
VERTEX
 8
0
 10
-12.175228
 20
225.010978
 30
0.0
 0
VERTEX
 8
0
 10
-12.175228
 20
242.130973
 30
0.0
 0
VERTEX
 8
0
 10
-9.940212
 20
242.130973
 30
0.0
 0
SEQEND
 8
0
 0
POLYLINE
 8
0
 62
7
 66
 1
 10
0.0
 20
0.0
 30
0.0
 70
1
 0
VERTEX
 8
0
 10
-38.832729
 20
233.038474
 30
0.0
 0
VERTEX
 8
0
 10
-45.462734
 20
233.038474
 30
0.0
 0
VERTEX
 8
0
 10
-45.462734
 20
226.865973
 30
0.0
 0
VERTEX
 8
0
 10
-38.045223
 20
226.865973
 30
0.0
 0
VERTEX
 8
0
 10
-38.045223
 20
225.010978
 30
0.0
 0
VERTEX
 8
0
 10
-47.697719
 20
225.010978
 30
0.0
 0
VERTEX
 8
0
 10
-47.697719
 20
242.130973
 30
0.0
 0
VERTEX
 8
0
 10
-38.425228
 20
242.130973
 30
0.0
 0
VERTEX
 8
0
 10
-38.425228
 20
240.278479
 30
0.0
 0
VERTEX
 8
0
 10
-45.462734
 20
240.278479
 30
0.0
 0
VERTEX
 8
0
 10
-45.462734
 20
234.865973
 30
0.0
 0
VERTEX
 8
0
 10
-38.832729
 20
234.865973
 30
0.0
 0
SEQEND
 8
0
 0
POLYLINE
 8
0
 62
7
 66
 1
 10
0.0
 20
0.0
 30
0.0
 70
1
 0
VERTEX
 8
0
 10
270.674763
 20
277.158454
 30
0.0
 0
VERTEX
 8
0
 10
279.894757
 20
277.158454
 30
0.0
 0
VERTEX
 8
0
 10
279.894757
 20
275.303473
 30
0.0
 0
VERTEX
 8
0
 10
272.909756
 20
275.303473
 30
0.0
 0
VERTEX
 8
0
 10
272.909756
 20
269.613471
 30
0.0
 0
VERTEX
 8
0
 10
279.362263
 20
269.613471
 30
0.0
 0
VERTEX
 8
0
 10
279.362263
 20
267.785956
 30
0.0
 0
VERTEX
 8
0
 10
272.909756
 20
267.785956
 30
0.0
 0
VERTEX
 8
0
 10
272.909756
 20
260.035956
 30
0.0
 0
VERTEX
 8
0
 10
270.674763
 20
260.035956
 30
0.0
 0
SEQEND
 8
0
 0
POLYLINE
 8
0
 62
7
 66
 1
 10
0.0
 20
0.0
 30
0.0
 70
1
 0
VERTEX
 8
0
 10
237.042271
 20
260.035956
 30
0.0
 0
VERTEX
 8
0
 10
237.042271
 20
277.158454
 30
0.0
 0
VERTEX
 8
0
 10
239.479764
 20
277.158454
 30
0.0
 0
VERTEX
 8
0
 10
244.939763
 20
268.495978
 30
0.0
 0
VERTEX
 8
0
 10
245.397259
 20
267.753455
 30
0.0
 0
VERTEX
 8
0
 10
245.832257
 20
267.025977
 30
0.0
 0
VERTEX
 8
0
 10
246.244763
 20
266.315955
 30
0.0
 0
VERTEX
 8
0
 10
246.637257
 20
265.618476
 30
0.0
 0
VERTEX
 8
0
 10
247.007260
 20
264.933478
 30
0.0
 0
VERTEX
 8
0
 10
247.357258
 20
264.258460
 30
0.0
 0
VERTEX
 8
0
 10
247.684758
 20
263.593482
 30
0.0
 0
VERTEX
 8
0
 10
247.989758
 20
262.933478
 30
0.0
 0
VERTEX
 8
0
 10
248.064763
 20
262.958472
 30
0.0
 0
VERTEX
 8
0
 10
247.994763
 20
263.808478
 30
0.0
 0
VERTEX
 8
0
 10
247.939763
 20
264.645972
 30
0.0
 0
VERTEX
 8
0
 10
247.894757
 20
265.485968
 30
0.0
 0
VERTEX
 8
0
 10
247.862263
 20
266.333472
 30
0.0
 0
VERTEX
 8
0
 10
247.839764
 20
267.198462
 30
0.0
 0
VERTEX
 8
0
 10
247.822262
 20
268.090979
 30
0.0
 0
VERTEX
 8
0
 10
247.814763
 20
269.020972
 30
0.0
 0
VERTEX
 8
0
 10
247.812260
 20
269.993476
 30
0.0
 0
VERTEX
 8
0
 10
247.812260
 20
277.158454
 30
0.0
 0
VERTEX
 8
0
 10
249.894757
 20
277.158454
 30
0.0
 0
VERTEX
 8
0
 10
249.894757
 20
260.035956
 30
0.0
 0
VERTEX
 8
0
 10
247.659764
 20
260.035956
 30
0.0
 0
VERTEX
 8
0
 10
242.222264
 20
268.725959
 30
0.0
 0
VERTEX
 8
0
 10
241.342259
 20
270.160956
 30
0.0
 0
VERTEX
 8
0
 10
240.914761
 20
270.883460
 30
0.0
 0
VERTEX
 8
0
 10
240.502263
 20
271.603461
 30
0.0
 0
VERTEX
 8
0
 10
240.107258
 20
272.320960
 30
0.0
 0
VERTEX
 8
0
 10
239.729764
 20
273.033454
 30
0.0
 0
VERTEX
 8
0
 10
239.374760
 20
273.740973
 30
0.0
 0
VERTEX
 8
0
 10
239.047261
 20
274.440955
 30
0.0
 0
VERTEX
 8
0
 10
238.972264
 20
274.413459
 30
0.0
 0
VERTEX
 8
0
 10
239.049763
 20
272.800971
 30
0.0
 0
VERTEX
 8
0
 10
239.077260
 20
271.980963
 30
0.0
 0
VERTEX
 8
0
 10
239.097264
 20
271.140967
 30
0.0
 0
VERTEX
 8
0
 10
239.109761
 20
270.268470
 30
0.0
 0
VERTEX
 8
0
 10
239.119763
 20
269.353461
 30
0.0
 0
VERTEX
 8
0
 10
239.122258
 20
268.875952
 30
0.0
 0
VERTEX
 8
0
 10
239.122258
 20
268.385962
 30
0.0
 0
VERTEX
 8
0
 10
239.124760
 20
267.878455
 30
0.0
 0
VERTEX
 8
0
 10
239.124760
 20
267.353461
 30
0.0
 0
VERTEX
 8
0
 10
239.124760
 20
260.035956
 30
0.0
 0
SEQEND
 8
0
 0
POLYLINE
 8
0
 62
7
 66
 1
 10
0.0
 20
0.0
 30
0.0
 70
1
 0
VERTEX
 8
0
 10
212.832265
 20
280.023474
 30
0.0
 0
VERTEX
 8
0
 10
212.857258
 20
280.275977
 30
0.0
 0
VERTEX
 8
0
 10
212.927266
 20
280.510962
 30
0.0
 0
VERTEX
 8
0
 10
213.039769
 20
280.728461
 30
0.0
 0
VERTEX
 8
0
 10
213.189763
 20
280.915961
 30
0.0
 0
VERTEX
 8
0
 10
213.377263
 20
281.073462
 30
0.0
 0
VERTEX
 8
0
 10
213.592259
 20
281.190955
 30
0.0
 0
VERTEX
 8
0
 10
213.834767
 20
281.265967
 30
0.0
 0
VERTEX
 8
0
 10
214.102269
 20
281.293463
 30
0.0
 0
VERTEX
 8
0
 10
214.359761
 20
281.268470
 30
0.0
 0
VERTEX
 8
0
 10
214.592259
 20
281.195960
 30
0.0
 0
VERTEX
 8
0
 10
214.802266
 20
281.078467
 30
0.0
 0
VERTEX
 8
0
 10
214.979771
 20
280.925971
 30
0.0
 0
VERTEX
 8
0
 10
215.124760
 20
280.738471
 30
0.0
 0
VERTEX
 8
0
 10
215.232258
 20
280.523474
 30
0.0
 0
VERTEX
 8
0
 10
215.299763
 20
280.283454
 30
0.0
 0
VERTEX
 8
0
 10
215.322270
 20
280.023474
 30
0.0
 0
VERTEX
 8
0
 10
215.299763
 20
279.763465
 30
0.0
 0
VERTEX
 8
0
 10
215.234761
 20
279.520972
 30
0.0
 0
VERTEX
 8
0
 10
215.127263
 20
279.300971
 30
0.0
 0
VERTEX
 8
0
 10
214.982258
 20
279.110968
 30
0.0
 0
VERTEX
 8
0
 10
214.799763
 20
278.950965
 30
0.0
 0
VERTEX
 8
0
 10
214.582265
 20
278.830970
 30
0.0
 0
VERTEX
 8
0
 10
214.332265
 20
278.755957
 30
0.0
 0
VERTEX
 8
0
 10
214.052266
 20
278.728461
 30
0.0
 0
VERTEX
 8
0
 10
213.794758
 20
278.755957
 30
0.0
 0
VERTEX
 8
0
 10
213.562260
 20
278.830970
 30
0.0
 0
VERTEX
 8
0
 10
213.352269
 20
278.950965
 30
0.0
 0
VERTEX
 8
0
 10
213.174763
 20
279.110968
 30
0.0
 0
VERTEX
 8
0
 10
213.029759
 20
279.300971
 30
0.0
 0
VERTEX
 8
0
 10
212.922261
 20
279.520972
 30
0.0
 0
VERTEX
 8
0
 10
212.854771
 20
279.763465
 30
0.0
 0
SEQEND
 8
0
 0
POLYLINE
 8
0
 62
7
 66
 1
 10
0.0
 20
0.0
 30
0.0
 70
1
 0
VERTEX
 8
0
 10
208.107258
 20
280.023474
 30
0.0
 0
VERTEX
 8
0
 10
208.132268
 20
280.275977
 30
0.0
 0
VERTEX
 8
0
 10
208.202260
 20
280.510962
 30
0.0
 0
VERTEX
 8
0
 10
208.314763
 20
280.728461
 30
0.0
 0
VERTEX
 8
0
 10
208.462269
 20
280.915961
 30
0.0
 0
VERTEX
 8
0
 10
208.647267
 20
281.073462
 30
0.0
 0
VERTEX
 8
0
 10
208.857258
 20
281.190955
 30
0.0
 0
VERTEX
 8
0
 10
209.094761
 20
281.265967
 30
0.0
 0
VERTEX
 8
0
 10
209.352269
 20
281.293463
 30
0.0
 0
VERTEX
 8
0
 10
209.609761
 20
281.268470
 30
0.0
 0
VERTEX
 8
0
 10
209.842259
 20
281.195960
 30
0.0
 0
VERTEX
 8
0
 10
210.052266
 20
281.078467
 30
0.0
 0
VERTEX
 8
0
 10
210.229771
 20
280.925971
 30
0.0
 0
VERTEX
 8
0
 10
210.374760
 20
280.738471
 30
0.0
 0
VERTEX
 8
0
 10
210.482258
 20
280.523474
 30
0.0
 0
VERTEX
 8
0
 10
210.549763
 20
280.283454
 30
0.0
 0
VERTEX
 8
0
 10
210.572270
 20
280.023474
 30
0.0
 0
VERTEX
 8
0
 10
210.549763
 20
279.763465
 30
0.0
 0
VERTEX
 8
0
 10
210.484761
 20
279.520972
 30
0.0
 0
VERTEX
 8
0
 10
210.379765
 20
279.300971
 30
0.0
 0
VERTEX
 8
0
 10
210.234761
 20
279.110968
 30
0.0
 0
VERTEX
 8
0
 10
210.057271
 20
278.950965
 30
0.0
 0
VERTEX
 8
0
 10
209.842259
 20
278.830970
 30
0.0
 0
VERTEX
 8
0
 10
209.599766
 20
278.755957
 30
0.0
 0
VERTEX
 8
0
 10
209.327260
 20
278.728461
 30
0.0
 0
VERTEX
 8
0
 10
209.069768
 20
278.755957
 30
0.0
 0
VERTEX
 8
0
 10
208.837269
 20
278.830970
 30
0.0
 0
VERTEX
 8
0
 10
208.629765
 20
278.950965
 30
0.0
 0
VERTEX
 8
0
 10
208.449772
 20
279.110968
 30
0.0
 0
VERTEX
 8
0
 10
208.307271
 20
279.300971
 30
0.0
 0
VERTEX
 8
0
 10
208.197270
 20
279.520972
 30
0.0
 0
VERTEX
 8
0
 10
208.129765
 20
279.763465
 30
0.0
 0
SEQEND
 8
0
 0
POLYLINE
 8
0
 62
7
 66
 1
 10
0.0
 20
0.0
 30
0.0
 70
1
 0
VERTEX
 8
0
 10
207.574772
 20
277.535956
 30
0.0
 0
VERTEX
 8
0
 10
207.574772
 20
267.373481
 30
0.0
 0
VERTEX
 8
0
 10
207.594761
 20
266.683478
 30
0.0
 0
VERTEX
 8
0
 10
207.652272
 20
266.045966
 30
0.0
 0
VERTEX
 8
0
 10
207.747258
 20
265.455970
 30
0.0
 0
VERTEX
 8
0
 10
207.877263
 20
264.915961
 30
0.0
 0
VERTEX
 8
0
 10
208.039769
 20
264.423468
 30
0.0
 0
VERTEX
 8
0
 10
208.234761
 20
263.978461
 30
0.0
 0
VERTEX
 8
0
 10
208.459767
 20
263.580970
 30
0.0
 0
VERTEX
 8
0
 10
208.712269
 20
263.228461
 30
0.0
 0
VERTEX
 8
0
 10
208.992268
 20
262.918463
 30
0.0
 0
VERTEX
 8
0
 10
209.297261
 20
262.653479
 30
0.0
 0
VERTEX
 8
0
 10
209.624760
 20
262.430976
 30
0.0
 0
VERTEX
 8
0
 10
209.974766
 20
262.250952
 30
0.0
 0
VERTEX
 8
0
 10
210.344761
 20
262.113471
 30
0.0
 0
VERTEX
 8
0
 10
210.734761
 20
262.015967
 30
0.0
 0
VERTEX
 8
0
 10
211.139760
 20
261.958472
 30
0.0
 0
VERTEX
 8
0
 10
211.562260
 20
261.938452
 30
0.0
 0
VERTEX
 8
0
 10
212.024769
 20
261.958472
 30
0.0
 0
VERTEX
 8
0
 10
212.462269
 20
262.018470
 30
0.0
 0
VERTEX
 8
0
 10
212.879765
 20
262.118476
 30
0.0
 0
VERTEX
 8
0
 10
213.274769
 20
262.258460
 30
0.0
 0
VERTEX
 8
0
 10
213.642262
 20
262.440955
 30
0.0
 0
VERTEX
 8
0
 10
213.987263
 20
262.665961
 30
0.0
 0
VERTEX
 8
0
 10
214.302266
 20
262.933478
 30
0.0
 0
VERTEX
 8
0
 10
214.589772
 20
263.245978
 30
0.0
 0
VERTEX
 8
0
 10
214.847264
 20
263.600959
 30
0.0
 0
VERTEX
 8
0
 10
215.074772
 20
264.000952
 30
0.0
 0
VERTEX
 8
0
 10
215.269765
 20
264.445960
 30
0.0
 0
VERTEX
 8
0
 10
215.432271
 20
264.938452
 30
0.0
 0
VERTEX
 8
0
 10
215.559758
 20
265.475959
 30
0.0
 0
VERTEX
 8
0
 10
215.654759
 20
266.060981
 30
0.0
 0
VERTEX
 8
0
 10
215.709767
 20
266.693457
 30
0.0
 0
VERTEX
 8
0
 10
215.729771
 20
267.373481
 30
0.0
 0
VERTEX
 8
0
 10
215.729771
 20
277.535956
 30
0.0
 0
VERTEX
 8
0
 10
217.964772
 20
277.535956
 30
0.0
 0
VERTEX
 8
0
 10
217.964772
 20
267.525977
 30
0.0
 0
VERTEX
 8
0
 10
217.957265
 20
267.040961
 30
0.0
 0
VERTEX
 8
0
 10
217.932271
 20
266.575965
 30
0.0
 0
VERTEX
 8
0
 10
217.892262
 20
266.128455
 30
0.0
 0
VERTEX
 8
0
 10
217.837269
 20
265.698462
 30
0.0
 0
VERTEX
 8
0
 10
217.769765
 20
265.285956
 30
0.0
 0
VERTEX
 8
0
 10
217.684758
 20
264.890967
 30
0.0
 0
VERTEX
 8
0
 10
217.587269
 20
264.513465
 30
0.0
 0
VERTEX
 8
0
 10
217.474766
 20
264.153479
 30
0.0
 0
VERTEX
 8
0
 10
217.347264
 20
263.808478
 30
0.0
 0
VERTEX
 8
0
 10
217.209767
 20
263.480963
 30
0.0
 0
VERTEX
 8
0
 10
217.057271
 20
263.170966
 30
0.0
 0
VERTEX
 8
0
 10
216.892262
 20
262.875952
 30
0.0
 0
VERTEX
 8
0
 10
216.717259
 20
262.598456
 30
0.0
 0
VERTEX
 8
0
 10
216.527272
 20
262.335974
 30
0.0
 0
VERTEX
 8
0
 10
216.327260
 20
262.088477
 30
0.0
 0
VERTEX
 8
0
 10
216.117268
 20
261.858466
 30
0.0
 0
VERTEX
 8
0
 10
215.894765
 20
261.643470
 30
0.0
 0
VERTEX
 8
0
 10
215.662266
 20
261.440955
 30
0.0
 0
VERTEX
 8
0
 10
215.419758
 20
261.255957
 30
0.0
 0
VERTEX
 8
0
 10
215.167271
 20
261.085974
 30
0.0
 0
VERTEX
 8
0
 10
214.632268
 20
260.788459
 30
0.0
 0
VERTEX
 8
0
 10
214.064763
 20
260.548468
 30
0.0
 0
VERTEX
 8
0
 10
213.462269
 20
260.365973
 30
0.0
 0
VERTEX
 8
0
 10
212.829762
 20
260.235968
 30
0.0
 0
VERTEX
 8
0
 10
212.172261
 20
260.158454
 30
0.0
 0
VERTEX
 8
0
 10
211.487263
 20
260.133460
 30
0.0
 0
VERTEX
 8
0
 10
210.839772
 20
260.155982
 30
0.0
 0
VERTEX
 8
0
 10
210.217259
 20
260.228461
 30
0.0
 0
VERTEX
 8
0
 10
209.617268
 20
260.350959
 30
0.0
 0
VERTEX
 8
0
 10
209.047261
 20
260.525977
 30
0.0
 0
VERTEX
 8
0
 10
208.507268
 20
260.755957
 30
0.0
 0
VERTEX
 8
0
 10
207.999760
 20
261.040961
 30
0.0
 0
VERTEX
 8
0
 10
207.759770
 20
261.205970
 30
0.0
 0
VERTEX
 8
0
 10
207.529759
 20
261.385962
 30
0.0
 0
VERTEX
 8
0
 10
207.309758
 20
261.580970
 30
0.0
 0
VERTEX
 8
0
 10
207.097264
 20
261.790961
 30
0.0
 0
VERTEX
 8
0
 10
206.897267
 20
262.018470
 30
0.0
 0
VERTEX
 8
0
 10
206.707265
 20
262.258460
 30
0.0
 0
VERTEX
 8
0
 10
206.527272
 20
262.515967
 30
0.0
 0
VERTEX
 8
0
 10
206.359761
 20
262.790961
 30
0.0
 0
VERTEX
 8
0
 10
206.204762
 20
263.080970
 30
0.0
 0
VERTEX
 8
0
 10
206.059758
 20
263.390967
 30
0.0
 0
VERTEX
 8
0
 10
205.927266
 20
263.713477
 30
0.0
 0
VERTEX
 8
0
 10
205.807271
 20
264.055976
 30
0.0
 0
VERTEX
 8
0
 10
205.699772
 20
264.415961
 30
0.0
 0
VERTEX
 8
0
 10
205.607258
 20
264.793463
 30
0.0
 0
VERTEX
 8
0
 10
205.527272
 20
265.190955
 30
0.0
 0
VERTEX
 8
0
 10
205.459767
 20
265.605963
 30
0.0
 0
VERTEX
 8
0
 10
205.407261
 20
266.038459
 30
0.0
 0
VERTEX
 8
0
 10
205.369771
 20
266.488471
 30
0.0
 0
VERTEX
 8
0
 10
205.347264
 20
266.960974
 30
0.0
 0
VERTEX
 8
0
 10
205.339772
 20
267.450965
 30
0.0
 0
VERTEX
 8
0
 10
205.339772
 20
277.535956
 30
0.0
 0
SEQEND
 8
0
 0
POLYLINE
 8
0
 62
7
 66
 1
 10
0.0
 20
0.0
 30
0.0
 70
1
 0
VERTEX
 8
0
 10
175.224766
 20
277.158454
 30
0.0
 0
VERTEX
 8
0
 10
184.444768
 20
277.158454
 30
0.0
 0
VERTEX
 8
0
 10
184.444768
 20
275.303473
 30
0.0
 0
VERTEX
 8
0
 10
177.459767
 20
275.303473
 30
0.0
 0
VERTEX
 8
0
 10
177.459767
 20
269.613471
 30
0.0
 0
VERTEX
 8
0
 10
183.912266
 20
269.613471
 30
0.0
 0
VERTEX
 8
0
 10
183.912266
 20
267.785956
 30
0.0
 0
VERTEX
 8
0
 10
177.459767
 20
267.785956
 30
0.0
 0
VERTEX
 8
0
 10
177.459767
 20
260.035956
 30
0.0
 0
VERTEX
 8
0
 10
175.224766
 20
260.035956
 30
0.0
 0
SEQEND
 8
0
 0
POLYLINE
 8
0
 62
7
 66
 1
 10
0.0
 20
0.0
 30
0.0
 70
1
 0
VERTEX
 8
0
 10
143.242268
 20
277.158454
 30
0.0
 0
VERTEX
 8
0
 10
145.477269
 20
277.158454
 30
0.0
 0
VERTEX
 8
0
 10
145.477269
 20
261.890967
 30
0.0
 0
VERTEX
 8
0
 10
152.794774
 20
261.890967
 30
0.0
 0
VERTEX
 8
0
 10
152.794774
 20
260.035956
 30
0.0
 0
VERTEX
 8
0
 10
143.242268
 20
260.035956
 30
0.0
 0
SEQEND
 8
0
 0
POLYLINE
 8
0
 62
7
 66
 1
 10
0.0
 20
0.0
 30
0.0
 70
1
 0
VERTEX
 8
0
 10
120.242268
 20
268.063452
 30
0.0
 0
VERTEX
 8
0
 10
113.612263
 20
268.063452
 30
0.0
 0
VERTEX
 8
0
 10
113.612263
 20
261.890967
 30
0.0
 0
VERTEX
 8
0
 10
121.029774
 20
261.890967
 30
0.0
 0
VERTEX
 8
0
 10
121.029774
 20
260.035956
 30
0.0
 0
VERTEX
 8
0
 10
111.377263
 20
260.035956
 30
0.0
 0
VERTEX
 8
0
 10
111.377263
 20
277.158454
 30
0.0
 0
VERTEX
 8
0
 10
120.649769
 20
277.158454
 30
0.0
 0
VERTEX
 8
0
 10
120.649769
 20
275.303473
 30
0.0
 0
VERTEX
 8
0
 10
113.612263
 20
275.303473
 30
0.0
 0
VERTEX
 8
0
 10
113.612263
 20
269.893470
 30
0.0
 0
VERTEX
 8
0
 10
120.242268
 20
269.893470
 30
0.0
 0
SEQEND
 8
0
 0
POLYLINE
 8
0
 62
7
 66
 1
 10
0.0
 20
0.0
 30
0.0
 70
1
 0
VERTEX
 8
0
 10
15.979771
 20
277.158454
 30
0.0
 0
VERTEX
 8
0
 10
18.214787
 20
277.158454
 30
0.0
 0
VERTEX
 8
0
 10
18.214787
 20
261.890967
 30
0.0
 0
VERTEX
 8
0
 10
25.529790
 20
261.890967
 30
0.0
 0
VERTEX
 8
0
 10
25.529790
 20
260.035956
 30
0.0
 0
VERTEX
 8
0
 10
15.979771
 20
260.035956
 30
0.0
 0
SEQEND
 8
0
 0
POLYLINE
 8
0
 62
7
 66
 1
 10
0.0
 20
0.0
 30
0.0
 70
1
 0
VERTEX
 8
0
 10
-47.017726
 20
277.158454
 30
0.0
 0
VERTEX
 8
0
 10
-47.017726
 20
269.993476
 30
0.0
 0
VERTEX
 8
0
 10
-38.737728
 20
269.993476
 30
0.0
 0
VERTEX
 8
0
 10
-38.737728
 20
277.158454
 30
0.0
 0
VERTEX
 8
0
 10
-36.502712
 20
277.158454
 30
0.0
 0
VERTEX
 8
0
 10
-36.502712
 20
260.035956
 30
0.0
 0
VERTEX
 8
0
 10
-38.737728
 20
260.035956
 30
0.0
 0
VERTEX
 8
0
 10
-38.737728
 20
268.063452
 30
0.0
 0
VERTEX
 8
0
 10
-47.017726
 20
268.063452
 30
0.0
 0
VERTEX
 8
0
 10
-47.017726
 20
260.035956
 30
0.0
 0
VERTEX
 8
0
 10
-49.255214
 20
260.035956
 30
0.0
 0
VERTEX
 8
0
 10
-49.255214
 20
277.158454
 30
0.0
 0
SEQEND
 8
0
 0
POLYLINE
 8
0
 62
7
 66
 1
 10
0.0
 20
0.0
 30
0.0
 70
1
 0
VERTEX
 8
0
 10
271.122258
 20
312.183478
 30
0.0
 0
VERTEX
 8
0
 10
271.122258
 20
305.020972
 30
0.0
 0
VERTEX
 8
0
 10
279.404759
 20
305.020972
 30
0.0
 0
VERTEX
 8
0
 10
279.404759
 20
312.183478
 30
0.0
 0
VERTEX
 8
0
 10
281.639760
 20
312.183478
 30
0.0
 0
VERTEX
 8
0
 10
281.639760
 20
295.063452
 30
0.0
 0
VERTEX
 8
0
 10
279.404759
 20
295.063452
 30
0.0
 0
VERTEX
 8
0
 10
279.404759
 20
303.090979
 30
0.0
 0
VERTEX
 8
0
 10
271.122258
 20
303.090979
 30
0.0
 0
VERTEX
 8
0
 10
271.122258
 20
295.063452
 30
0.0
 0
VERTEX
 8
0
 10
268.887257
 20
295.063452
 30
0.0
 0
VERTEX
 8
0
 10
268.887257
 20
312.183478
 30
0.0
 0
SEQEND
 8
0
 0
POLYLINE
 8
0
 62
7
 66
 1
 10
0.0
 20
0.0
 30
0.0
 70
1
 0
VERTEX
 8
0
 10
249.909764
 20
295.595954
 30
0.0
 0
VERTEX
 8
0
 10
249.752263
 20
295.520972
 30
0.0
 0
VERTEX
 8
0
 10
249.574757
 20
295.445960
 30
0.0
 0
VERTEX
 8
0
 10
249.377263
 20
295.370978
 30
0.0
 0
VERTEX
 8
0
 10
249.164761
 20
295.298468
 30
0.0
 0
VERTEX
 8
0
 10
248.932263
 20
295.228461
 30
0.0
 0
VERTEX
 8
0
 10
248.682263
 20
295.160956
 30
0.0
 0
VERTEX
 8
0
 10
248.414761
 20
295.098456
 30
0.0
 0
VERTEX
 8
0
 10
248.134762
 20
295.038459
 30
0.0
 0
VERTEX
 8
0
 10
247.837262
 20
294.983466
 30
0.0
 0
VERTEX
 8
0
 10
247.524762
 20
294.933478
 30
0.0
 0
VERTEX
 8
0
 10
246.862263
 20
294.853461
 30
0.0
 0
VERTEX
 8
0
 10
246.147259
 20
294.800971
 30
0.0
 0
VERTEX
 8
0
 10
245.387257
 20
294.783454
 30
0.0
 0
VERTEX
 8
0
 10
244.937260
 20
294.793463
 30
0.0
 0
VERTEX
 8
0
 10
244.497258
 20
294.818457
 30
0.0
 0
VERTEX
 8
0
 10
244.064763
 20
294.863471
 30
0.0
 0
VERTEX
 8
0
 10
243.639760
 20
294.925971
 30
0.0
 0
VERTEX
 8
0
 10
243.222264
 20
295.005957
 30
0.0
 0
VERTEX
 8
0
 10
242.817258
 20
295.100959
 30
0.0
 0
VERTEX
 8
0
 10
242.419758
 20
295.215979
 30
0.0
 0
VERTEX
 8
0
 10
242.032261
 20
295.348456
 30
0.0
 0
VERTEX
 8
0
 10
241.657261
 20
295.495978
 30
0.0
 0
VERTEX
 8
0
 10
241.292264
 20
295.663459
 30
0.0
 0
VERTEX
 8
0
 10
240.939763
 20
295.845954
 30
0.0
 0
VERTEX
 8
0
 10
240.597264
 20
296.045966
 30
0.0
 0
VERTEX
 8
0
 10
240.269765
 20
296.260962
 30
0.0
 0
VERTEX
 8
0
 10
239.952260
 20
296.495978
 30
0.0
 0
VERTEX
 8
0
 10
239.649762
 20
296.745978
 30
0.0
 0
VERTEX
 8
0
 10
239.359761
 20
297.010962
 30
0.0
 0
VERTEX
 8
0
 10
239.084759
 20
297.295966
 30
0.0
 0
VERTEX
 8
0
 10
238.824757
 20
297.595954
 30
0.0
 0
VERTEX
 8
0
 10
238.579762
 20
297.910956
 30
0.0
 0
VERTEX
 8
0
 10
238.349759
 20
298.243476
 30
0.0
 0
VERTEX
 8
0
 10
238.137257
 20
298.590979
 30
0.0
 0
VERTEX
 8
0
 10
237.937260
 20
298.955970
 30
0.0
 0
VERTEX
 8
0
 10
237.757268
 20
299.338477
 30
0.0
 0
VERTEX
 8
0
 10
237.594761
 20
299.733466
 30
0.0
 0
VERTEX
 8
0
 10
237.447270
 20
300.145972
 30
0.0
 0
VERTEX
 8
0
 10
237.319768
 20
300.575965
 30
0.0
 0
VERTEX
 8
0
 10
237.209767
 20
301.018470
 30
0.0
 0
VERTEX
 8
0
 10
237.119771
 20
301.478461
 30
0.0
 0
VERTEX
 8
0
 10
237.047261
 20
301.953467
 30
0.0
 0
VERTEX
 8
0
 10
236.997258
 20
302.443457
 30
0.0
 0
VERTEX
 8
0
 10
236.967259
 20
302.950965
 30
0.0
 0
VERTEX
 8
0
 10
236.954762
 20
303.470954
 30
0.0
 0
VERTEX
 8
0
 10
236.964772
 20
303.970954
 30
0.0
 0
VERTEX
 8
0
 10
236.997258
 20
304.458472
 30
0.0
 0
VERTEX
 8
0
 10
237.049763
 20
304.935981
 30
0.0
 0
VERTEX
 8
0
 10
237.122258
 20
305.403479
 30
0.0
 0
VERTEX
 8
0
 10
237.212269
 20
305.858466
 30
0.0
 0
VERTEX
 8
0
 10
237.324757
 20
306.300971
 30
0.0
 0
VERTEX
 8
0
 10
237.454762
 20
306.730963
 30
0.0
 0
VERTEX
 8
0
 10
237.604771
 20
307.148474
 30
0.0
 0
VERTEX
 8
0
 10
237.772267
 20
307.550971
 30
0.0
 0
VERTEX
 8
0
 10
237.959767
 20
307.943457
 30
0.0
 0
VERTEX
 8
0
 10
238.162266
 20
308.320960
 30
0.0
 0
VERTEX
 8
0
 10
238.384762
 20
308.683478
 30
0.0
 0
VERTEX
 8
0
 10
238.622258
 20
309.030951
 30
0.0
 0
VERTEX
 8
0
 10
238.877263
 20
309.365973
 30
0.0
 0
VERTEX
 8
0
 10
239.147259
 20
309.683478
 30
0.0
 0
VERTEX
 8
0
 10
239.434758
 20
309.985968
 30
0.0
 0
VERTEX
 8
0
 10
239.737263
 20
310.273474
 30
0.0
 0
VERTEX
 8
0
 10
240.054761
 20
310.545966
 30
0.0
 0
VERTEX
 8
0
 10
240.387257
 20
310.800971
 30
0.0
 0
VERTEX
 8
0
 10
240.734761
 20
311.038459
 30
0.0
 0
VERTEX
 8
0
 10
241.094761
 20
311.258460
 30
0.0
 0
VERTEX
 8
0
 10
241.469761
 20
311.463477
 30
0.0
 0
VERTEX
 8
0
 10
241.857258
 20
311.648474
 30
0.0
 0
VERTEX
 8
0
 10
242.259762
 20
311.815955
 30
0.0
 0
VERTEX
 8
0
 10
242.672261
 20
311.965979
 30
0.0
 0
VERTEX
 8
0
 10
243.099759
 20
312.095954
 30
0.0
 0
VERTEX
 8
0
 10
243.537259
 20
312.205970
 30
0.0
 0
VERTEX
 8
0
 10
243.987263
 20
312.298468
 30
0.0
 0
VERTEX
 8
0
 10
244.447262
 20
312.370978
 30
0.0
 0
VERTEX
 8
0
 10
244.919758
 20
312.420966
 30
0.0
 0
VERTEX
 8
0
 10
245.402264
 20
312.453467
 30
0.0
 0
VERTEX
 8
0
 10
245.894757
 20
312.463477
 30
0.0
 0
VERTEX
 8
0
 10
246.282261
 20
312.458472
 30
0.0
 0
VERTEX
 8
0
 10
246.652264
 20
312.443457
 30
0.0
 0
VERTEX
 8
0
 10
247.002263
 20
312.418463
 30
0.0
 0
VERTEX
 8
0
 10
247.337262
 20
312.388465
 30
0.0
 0
VERTEX
 8
0
 10
247.654759
 20
312.348456
 30
0.0
 0
VERTEX
 8
0
 10
247.954762
 20
312.303473
 30
0.0
 0
VERTEX
 8
0
 10
248.234761
 20
312.250952
 30
0.0
 0
VERTEX
 8
0
 10
248.499760
 20
312.195960
 30
0.0
 0
VERTEX
 8
0
 10
248.744763
 20
312.138465
 30
0.0
 0
VERTEX
 8
0
 10
248.972264
 20
312.075965
 30
0.0
 0
VERTEX
 8
0
 10
249.182263
 20
312.013465
 30
0.0
 0
VERTEX
 8
0
 10
249.374760
 20
311.948462
 30
0.0
 0
VERTEX
 8
0
 10
249.547261
 20
311.883460
 30
0.0
 0
VERTEX
 8
0
 10
249.704762
 20
311.820960
 30
0.0
 0
VERTEX
 8
0
 10
249.839764
 20
311.760962
 30
0.0
 0
VERTEX
 8
0
 10
249.959759
 20
311.700965
 30
0.0
 0
VERTEX
 8
0
 10
249.399762
 20
309.898474
 30
0.0
 0
VERTEX
 8
0
 10
249.077260
 20
310.045966
 30
0.0
 0
VERTEX
 8
0
 10
248.722264
 20
310.180976
 30
0.0
 0
VERTEX
 8
0
 10
248.332257
 20
310.300971
 30
0.0
 0
VERTEX
 8
0
 10
247.914761
 20
310.405951
 30
0.0
 0
VERTEX
 8
0
 10
247.467259
 20
310.490973
 30
0.0
 0
VERTEX
 8
0
 10
246.994763
 20
310.553473
 30
0.0
 0
VERTEX
 8
0
 10
246.494763
 20
310.593451
 30
0.0
 0
VERTEX
 8
0
 10
245.972264
 20
310.608466
 30
0.0
 0
VERTEX
 8
0
 10
245.599759
 20
310.600959
 30
0.0
 0
VERTEX
 8
0
 10
245.234761
 20
310.578467
 30
0.0
 0
VERTEX
 8
0
 10
244.532261
 20
310.488471
 30
0.0
 0
VERTEX
 8
0
 10
243.864758
 20
310.340979
 30
0.0
 0
VERTEX
 8
0
 10
243.234761
 20
310.138465
 30
0.0
 0
VERTEX
 8
0
 10
242.642262
 20
309.875952
 30
0.0
 0
VERTEX
 8
0
 10
242.092259
 20
309.560981
 30
0.0
 0
VERTEX
 8
0
 10
241.587262
 20
309.188452
 30
0.0
 0
VERTEX
 8
0
 10
241.124760
 20
308.763465
 30
0.0
 0
VERTEX
 8
0
 10
240.709759
 20
308.285956
 30
0.0
 0
VERTEX
 8
0
 10
240.344761
 20
307.758460
 30
0.0
 0
VERTEX
 8
0
 10
240.029759
 20
307.178473
 30
0.0
 0
VERTEX
 8
0
 10
239.769765
 20
306.548468
 30
0.0
 0
VERTEX
 8
0
 10
239.562260
 20
305.868476
 30
0.0
 0
VERTEX
 8
0
 10
239.412259
 20
305.143470
 30
0.0
 0
VERTEX
 8
0
 10
239.359761
 20
304.760962
 30
0.0
 0
VERTEX
 8
0
 10
239.319760
 20
304.368476
 30
0.0
 0
VERTEX
 8
0
 10
239.297261
 20
303.963477
 30
0.0
 0
VERTEX
 8
0
 10
239.289761
 20
303.548468
 30
0.0
 0
VERTEX
 8
0
 10
239.317258
 20
302.775977
 30
0.0
 0
VERTEX
 8
0
 10
239.402264
 20
302.040961
 30
0.0
 0
VERTEX
 8
0
 10
239.539761
 20
301.345954
 30
0.0
 0
VERTEX
 8
0
 10
239.732258
 20
300.693457
 30
0.0
 0
VERTEX
 8
0
 10
239.977261
 20
300.083472
 30
0.0
 0
VERTEX
 8
0
 10
240.272259
 20
299.515967
 30
0.0
 0
VERTEX
 8
0
 10
240.619763
 20
298.995978
 30
0.0
 0
VERTEX
 8
0
 10
241.014760
 20
298.523474
 30
0.0
 0
VERTEX
 8
0
 10
241.459759
 20
298.100959
 30
0.0
 0
VERTEX
 8
0
 10
241.952260
 20
297.730963
 30
0.0
 0
VERTEX
 8
0
 10
242.489758
 20
297.410956
 30
0.0
 0
VERTEX
 8
0
 10
243.074757
 20
297.145972
 30
0.0
 0
VERTEX
 8
0
 10
243.702260
 20
296.938452
 30
0.0
 0
VERTEX
 8
0
 10
244.374760
 20
296.785956
 30
0.0
 0
VERTEX
 8
0
 10
244.727261
 20
296.733466
 30
0.0
 0
VERTEX
 8
0
 10
245.089764
 20
296.693457
 30
0.0
 0
VERTEX
 8
0
 10
245.462262
 20
296.670966
 30
0.0
 0
VERTEX
 8
0
 10
245.844761
 20
296.663459
 30
0.0
 0
VERTEX
 8
0
 10
246.357258
 20
296.675971
 30
0.0
 0
VERTEX
 8
0
 10
246.867261
 20
296.713477
 30
0.0
 0
VERTEX
 8
0
 10
247.362263
 20
296.775977
 30
0.0
 0
VERTEX
 8
0
 10
247.842259
 20
296.858466
 30
0.0
 0
VERTEX
 8
0
 10
248.299763
 20
296.960974
 30
0.0
 0
VERTEX
 8
0
 10
248.727261
 20
297.080970
 30
0.0
 0
VERTEX
 8
0
 10
249.122258
 20
297.220954
 30
0.0
 0
VERTEX
 8
0
 10
249.477261
 20
297.375952
 30
0.0
 0
SEQEND
 8
0
 0
POLYLINE
 8
0
 62
7
 66
 1
 10
0.0
 20
0.0
 30
0.0
 70
1
 0
VERTEX
 8
0
 10
173.414769
 20
295.063452
 30
0.0
 0
VERTEX
 8
0
 10
173.414769
 20
312.183478
 30
0.0
 0
VERTEX
 8
0
 10
175.854771
 20
312.183478
 30
0.0
 0
VERTEX
 8
0
 10
181.314763
 20
303.520972
 30
0.0
 0
VERTEX
 8
0
 10
181.769765
 20
302.778479
 30
0.0
 0
VERTEX
 8
0
 10
182.204762
 20
302.053473
 30
0.0
 0
VERTEX
 8
0
 10
182.619771
 20
301.340979
 30
0.0
 0
VERTEX
 8
0
 10
183.012272
 20
300.645972
 30
0.0
 0
VERTEX
 8
0
 10
183.382268
 20
299.960974
 30
0.0
 0
VERTEX
 8
0
 10
183.732258
 20
299.285956
 30
0.0
 0
VERTEX
 8
0
 10
184.059773
 20
298.618476
 30
0.0
 0
VERTEX
 8
0
 10
184.364766
 20
297.958472
 30
0.0
 0
VERTEX
 8
0
 10
184.439763
 20
297.983466
 30
0.0
 0
VERTEX
 8
0
 10
184.369771
 20
298.833472
 30
0.0
 0
VERTEX
 8
0
 10
184.314763
 20
299.673468
 30
0.0
 0
VERTEX
 8
0
 10
184.269765
 20
300.510962
 30
0.0
 0
VERTEX
 8
0
 10
184.237263
 20
301.360968
 30
0.0
 0
VERTEX
 8
0
 10
184.212269
 20
302.225959
 30
0.0
 0
VERTEX
 8
0
 10
184.197270
 20
303.118476
 30
0.0
 0
VERTEX
 8
0
 10
184.187260
 20
304.045966
 30
0.0
 0
VERTEX
 8
0
 10
184.184773
 20
305.020972
 30
0.0
 0
VERTEX
 8
0
 10
184.184773
 20
312.183478
 30
0.0
 0
VERTEX
 8
0
 10
186.269765
 20
312.183478
 30
0.0
 0
VERTEX
 8
0
 10
186.269765
 20
295.063452
 30
0.0
 0
VERTEX
 8
0
 10
184.034764
 20
295.063452
 30
0.0
 0
VERTEX
 8
0
 10
178.597264
 20
303.750952
 30
0.0
 0
VERTEX
 8
0
 10
177.717259
 20
305.185981
 30
0.0
 0
VERTEX
 8
0
 10
177.289769
 20
305.908454
 30
0.0
 0
VERTEX
 8
0
 10
176.877263
 20
306.628455
 30
0.0
 0
VERTEX
 8
0
 10
176.482258
 20
307.345954
 30
0.0
 0
VERTEX
 8
0
 10
176.104771
 20
308.058478
 30
0.0
 0
VERTEX
 8
0
 10
175.749760
 20
308.765967
 30
0.0
 0
VERTEX
 8
0
 10
175.422261
 20
309.465979
 30
0.0
 0
VERTEX
 8
0
 10
175.347264
 20
309.440955
 30
0.0
 0
VERTEX
 8
0
 10
175.424763
 20
307.825965
 30
0.0
 0
VERTEX
 8
0
 10
175.449772
 20
307.008460
 30
0.0
 0
VERTEX
 8
0
 10
175.469761
 20
306.165961
 30
0.0
 0
VERTEX
 8
0
 10
175.484761
 20
305.293463
 30
0.0
 0
VERTEX
 8
0
 10
175.492268
 20
304.378455
 30
0.0
 0
VERTEX
 8
0
 10
175.497273
 20
303.900977
 30
0.0
 0
VERTEX
 8
0
 10
175.497273
 20
303.410956
 30
0.0
 0
VERTEX
 8
0
 10
175.499760
 20
302.903479
 30
0.0
 0
VERTEX
 8
0
 10
175.499760
 20
302.378455
 30
0.0
 0
VERTEX
 8
0
 10
175.499760
 20
295.063452
 30
0.0
 0
SEQEND
 8
0
 0
POLYLINE
 8
0
 62
7
 66
 1
 10
0.0
 20
0.0
 30
0.0
 70
1
 0
VERTEX
 8
0
 10
141.989766
 20
312.183478
 30
0.0
 0
VERTEX
 8
0
 10
144.199772
 20
312.183478
 30
0.0
 0
VERTEX
 8
0
 10
144.199772
 20
303.928473
 30
0.0
 0
VERTEX
 8
0
 10
144.277272
 20
303.928473
 30
0.0
 0
VERTEX
 8
0
 10
144.619771
 20
304.413459
 30
0.0
 0
VERTEX
 8
0
 10
144.959767
 20
304.880957
 30
0.0
 0
VERTEX
 8
0
 10
145.294774
 20
305.328467
 30
0.0
 0
VERTEX
 8
0
 10
145.622273
 20
305.758460
 30
0.0
 0
VERTEX
 8
0
 10
150.854771
 20
312.183478
 30
0.0
 0
VERTEX
 8
0
 10
153.599766
 20
312.183478
 30
0.0
 0
VERTEX
 8
0
 10
147.399769
 20
304.918463
 30
0.0
 0
VERTEX
 8
0
 10
154.082265
 20
295.063452
 30
0.0
 0
VERTEX
 8
0
 10
151.464772
 20
295.063452
 30
0.0
 0
VERTEX
 8
0
 10
145.852269
 20
303.470954
 30
0.0
 0
VERTEX
 8
0
 10
144.199772
 20
301.590979
 30
0.0
 0
VERTEX
 8
0
 10
144.199772
 20
295.063452
 30
0.0
 0
VERTEX
 8
0
 10
141.989766
 20
295.063452
 30
0.0
 0
SEQEND
 8
0
 0
POLYLINE
 8
0
 62
7
 66
 1
 10
0.0
 20
0.0
 30
0.0
 70
1
 0
VERTEX
 8
0
 10
109.802281
 20
295.063452
 30
0.0
 0
VERTEX
 8
0
 10
109.802281
 20
312.183478
 30
0.0
 0
VERTEX
 8
0
 10
112.239766
 20
312.183478
 30
0.0
 0
VERTEX
 8
0
 10
117.702275
 20
303.520972
 30
0.0
 0
VERTEX
 8
0
 10
118.157261
 20
302.778479
 30
0.0
 0
VERTEX
 8
0
 10
118.592274
 20
302.053473
 30
0.0
 0
VERTEX
 8
0
 10
119.004765
 20
301.340979
 30
0.0
 0
VERTEX
 8
0
 10
119.397267
 20
300.645972
 30
0.0
 0
VERTEX
 8
0
 10
119.767262
 20
299.960974
 30
0.0
 0
VERTEX
 8
0
 10
120.117268
 20
299.285956
 30
0.0
 0
VERTEX
 8
0
 10
120.444768
 20
298.618476
 30
0.0
 0
VERTEX
 8
0
 10
120.749760
 20
297.958472
 30
0.0
 0
VERTEX
 8
0
 10
120.827260
 20
297.983466
 30
0.0
 0
VERTEX
 8
0
 10
120.757268
 20
298.833472
 30
0.0
 0
VERTEX
 8
0
 10
120.702260
 20
299.673468
 30
0.0
 0
VERTEX
 8
0
 10
120.657261
 20
300.510962
 30
0.0
 0
VERTEX
 8
0
 10
120.624760
 20
301.360968
 30
0.0
 0
VERTEX
 8
0
 10
120.599766
 20
302.225959
 30
0.0
 0
VERTEX
 8
0
 10
120.584767
 20
303.118476
 30
0.0
 0
VERTEX
 8
0
 10
120.574772
 20
304.045966
 30
0.0
 0
VERTEX
 8
0
 10
120.572270
 20
305.020972
 30
0.0
 0
VERTEX
 8
0
 10
120.572270
 20
312.183478
 30
0.0
 0
VERTEX
 8
0
 10
122.654774
 20
312.183478
 30
0.0
 0
VERTEX
 8
0
 10
122.654774
 20
295.063452
 30
0.0
 0
VERTEX
 8
0
 10
120.419774
 20
295.063452
 30
0.0
 0
VERTEX
 8
0
 10
114.984761
 20
303.750952
 30
0.0
 0
VERTEX
 8
0
 10
114.102269
 20
305.185981
 30
0.0
 0
VERTEX
 8
0
 10
113.674763
 20
305.908454
 30
0.0
 0
VERTEX
 8
0
 10
113.262272
 20
306.628455
 30
0.0
 0
VERTEX
 8
0
 10
112.867268
 20
307.345954
 30
0.0
 0
VERTEX
 8
0
 10
112.492268
 20
308.058478
 30
0.0
 0
VERTEX
 8
0
 10
112.137272
 20
308.765967
 30
0.0
 0
VERTEX
 8
0
 10
111.809773
 20
309.465979
 30
0.0
 0
VERTEX
 8
0
 10
111.732274
 20
309.440955
 30
0.0
 0
VERTEX
 8
0
 10
111.809773
 20
307.825965
 30
0.0
 0
VERTEX
 8
0
 10
111.837269
 20
307.008460
 30
0.0
 0
VERTEX
 8
0
 10
111.857274
 20
306.165961
 30
0.0
 0
VERTEX
 8
0
 10
111.869771
 20
305.293463
 30
0.0
 0
VERTEX
 8
0
 10
111.879765
 20
304.378455
 30
0.0
 0
VERTEX
 8
0
 10
111.882268
 20
303.900977
 30
0.0
 0
VERTEX
 8
0
 10
111.882268
 20
303.410956
 30
0.0
 0
VERTEX
 8
0
 10
111.884770
 20
302.903479
 30
0.0
 0
VERTEX
 8
0
 10
111.884770
 20
302.378455
 30
0.0
 0
VERTEX
 8
0
 10
111.884770
 20
295.063452
 30
0.0
 0
SEQEND
 8
0
 0
POLYLINE
 8
0
 62
7
 66
 1
 10
0.0
 20
0.0
 30
0.0
 70
1
 0
VERTEX
 8
0
 10
80.344761
 20
312.323462
 30
0.0
 0
VERTEX
 8
0
 10
80.344761
 20
302.163459
 30
0.0
 0
VERTEX
 8
0
 10
80.364781
 20
301.473456
 30
0.0
 0
VERTEX
 8
0
 10
80.422276
 20
300.835974
 30
0.0
 0
VERTEX
 8
0
 10
80.517277
 20
300.245978
 30
0.0
 0
VERTEX
 8
0
 10
80.647282
 20
299.705970
 30
0.0
 0
VERTEX
 8
0
 10
80.809788
 20
299.213477
 30
0.0
 0
VERTEX
 8
0
 10
81.004765
 20
298.768470
 30
0.0
 0
VERTEX
 8
0
 10
81.229771
 20
298.368476
 30
0.0
 0
VERTEX
 8
0
 10
81.482274
 20
298.015967
 30
0.0
 0
VERTEX
 8
0
 10
81.762272
 20
297.705970
 30
0.0
 0
VERTEX
 8
0
 10
82.067265
 20
297.440955
 30
0.0
 0
VERTEX
 8
0
 10
82.394780
 20
297.218451
 30
0.0
 0
VERTEX
 8
0
 10
82.744786
 20
297.040961
 30
0.0
 0
VERTEX
 8
0
 10
83.114781
 20
296.900977
 30
0.0
 0
VERTEX
 8
0
 10
83.504765
 20
296.803473
 30
0.0
 0
VERTEX
 8
0
 10
83.909764
 20
296.745978
 30
0.0
 0
VERTEX
 8
0
 10
84.332280
 20
296.725959
 30
0.0
 0
VERTEX
 8
0
 10
84.794774
 20
296.745978
 30
0.0
 0
VERTEX
 8
0
 10
85.232274
 20
296.805976
 30
0.0
 0
VERTEX
 8
0
 10
85.649785
 20
296.905951
 30
0.0
 0
VERTEX
 8
0
 10
86.044774
 20
297.045966
 30
0.0
 0
VERTEX
 8
0
 10
86.412266
 20
297.230963
 30
0.0
 0
VERTEX
 8
0
 10
86.757268
 20
297.455970
 30
0.0
 0
VERTEX
 8
0
 10
87.072270
 20
297.723456
 30
0.0
 0
VERTEX
 8
0
 10
87.359776
 20
298.033454
 30
0.0
 0
VERTEX
 8
0
 10
87.617283
 20
298.390967
 30
0.0
 0
VERTEX
 8
0
 10
87.844761
 20
298.790961
 30
0.0
 0
VERTEX
 8
0
 10
88.039769
 20
299.235968
 30
0.0
 0
VERTEX
 8
0
 10
88.202275
 20
299.728461
 30
0.0
 0
VERTEX
 8
0
 10
88.329777
 20
300.265967
 30
0.0
 0
VERTEX
 8
0
 10
88.424779
 20
300.850959
 30
0.0
 0
VERTEX
 8
0
 10
88.479771
 20
301.483466
 30
0.0
 0
VERTEX
 8
0
 10
88.499791
 20
302.163459
 30
0.0
 0
VERTEX
 8
0
 10
88.499791
 20
312.323462
 30
0.0
 0
VERTEX
 8
0
 10
90.734776
 20
312.323462
 30
0.0
 0
VERTEX
 8
0
 10
90.734776
 20
302.315955
 30
0.0
 0
VERTEX
 8
0
 10
90.727269
 20
301.830970
 30
0.0
 0
VERTEX
 8
0
 10
90.702275
 20
301.365973
 30
0.0
 0
VERTEX
 8
0
 10
90.662266
 20
300.918463
 30
0.0
 0
VERTEX
 8
0
 10
90.607274
 20
300.488471
 30
0.0
 0
VERTEX
 8
0
 10
90.539769
 20
300.075965
 30
0.0
 0
VERTEX
 8
0
 10
90.454777
 20
299.680976
 30
0.0
 0
VERTEX
 8
0
 10
90.357274
 20
299.303473
 30
0.0
 0
VERTEX
 8
0
 10
90.244786
 20
298.940955
 30
0.0
 0
VERTEX
 8
0
 10
90.117283
 20
298.598456
 30
0.0
 0
VERTEX
 8
0
 10
89.979771
 20
298.270972
 30
0.0
 0
VERTEX
 8
0
 10
89.827275
 20
297.960974
 30
0.0
 0
VERTEX
 8
0
 10
89.662266
 20
297.665961
 30
0.0
 0
VERTEX
 8
0
 10
89.487279
 20
297.385962
 30
0.0
 0
VERTEX
 8
0
 10
89.297276
 20
297.125952
 30
0.0
 0
VERTEX
 8
0
 10
89.097264
 20
296.878455
 30
0.0
 0
VERTEX
 8
0
 10
88.887272
 20
296.645972
 30
0.0
 0
VERTEX
 8
0
 10
88.664769
 20
296.430976
 30
0.0
 0
VERTEX
 8
0
 10
88.432286
 20
296.230963
 30
0.0
 0
VERTEX
 8
0
 10
88.189763
 20
296.045966
 30
0.0
 0
VERTEX
 8
0
 10
87.937291
 20
295.875952
 30
0.0
 0
VERTEX
 8
0
 10
87.402287
 20
295.578467
 30
0.0
 0
VERTEX
 8
0
 10
86.834782
 20
295.338477
 30
0.0
 0
VERTEX
 8
0
 10
86.232274
 20
295.155951
 30
0.0
 0
VERTEX
 8
0
 10
85.599766
 20
295.025977
 30
0.0
 0
VERTEX
 8
0
 10
84.942265
 20
294.948462
 30
0.0
 0
VERTEX
 8
0
 10
84.257268
 20
294.923468
 30
0.0
 0
VERTEX
 8
0
 10
83.609776
 20
294.945960
 30
0.0
 0
VERTEX
 8
0
 10
82.987279
 20
295.018470
 30
0.0
 0
VERTEX
 8
0
 10
82.387272
 20
295.140967
 30
0.0
 0
VERTEX
 8
0
 10
81.817265
 20
295.315955
 30
0.0
 0
VERTEX
 8
0
 10
81.277287
 20
295.545966
 30
0.0
 0
VERTEX
 8
0
 10
80.772282
 20
295.830970
 30
0.0
 0
VERTEX
 8
0
 10
80.532261
 20
295.995978
 30
0.0
 0
VERTEX
 8
0
 10
80.302281
 20
296.175971
 30
0.0
 0
VERTEX
 8
0
 10
80.079777
 20
296.370978
 30
0.0
 0
VERTEX
 8
0
 10
79.869786
 20
296.580970
 30
0.0
 0
VERTEX
 8
0
 10
79.667271
 20
296.805976
 30
0.0
 0
VERTEX
 8
0
 10
79.477269
 20
297.048468
 30
0.0
 0
VERTEX
 8
0
 10
79.299779
 20
297.305976
 30
0.0
 0
VERTEX
 8
0
 10
79.129765
 20
297.578467
 30
0.0
 0
VERTEX
 8
0
 10
78.974766
 20
297.870978
 30
0.0
 0
VERTEX
 8
0
 10
78.829777
 20
298.178473
 30
0.0
 0
VERTEX
 8
0
 10
78.697270
 20
298.503455
 30
0.0
 0
VERTEX
 8
0
 10
78.577275
 20
298.845954
 30
0.0
 0
VERTEX
 8
0
 10
78.469761
 20
299.203467
 30
0.0
 0
VERTEX
 8
0
 10
78.377263
 20
299.583472
 30
0.0
 0
VERTEX
 8
0
 10
78.297276
 20
299.978461
 30
0.0
 0
VERTEX
 8
0
 10
78.229771
 20
300.393470
 30
0.0
 0
VERTEX
 8
0
 10
78.177281
 20
300.825965
 30
0.0
 0
VERTEX
 8
0
 10
78.139775
 20
301.275977
 30
0.0
 0
VERTEX
 8
0
 10
78.117283
 20
301.748481
 30
0.0
 0
VERTEX
 8
0
 10
78.109776
 20
302.238471
 30
0.0
 0
VERTEX
 8
0
 10
78.109776
 20
312.323462
 30
0.0
 0
SEQEND
 8
0
 0
POLYLINE
 8
0
 62
7
 66
 1
 10
0.0
 20
0.0
 30
0.0
 70
1
 0
VERTEX
 8
0
 10
48.004765
 20
312.183478
 30
0.0
 0
VERTEX
 8
0
 10
57.224766
 20
312.183478
 30
0.0
 0
VERTEX
 8
0
 10
57.224766
 20
310.330970
 30
0.0
 0
VERTEX
 8
0
 10
50.239781
 20
310.330970
 30
0.0
 0
VERTEX
 8
0
 10
50.239781
 20
304.640967
 30
0.0
 0
VERTEX
 8
0
 10
56.692265
 20
304.640967
 30
0.0
 0
VERTEX
 8
0
 10
56.692265
 20
302.810981
 30
0.0
 0
VERTEX
 8
0
 10
50.239781
 20
302.810981
 30
0.0
 0
VERTEX
 8
0
 10
50.239781
 20
295.063452
 30
0.0
 0
VERTEX
 8
0
 10
48.004765
 20
295.063452
 30
0.0
 0
SEQEND
 8
0
 0
POLYLINE
 8
0
 62
7
 66
 1
 10
0.0
 20
0.0
 30
0.0
 70
1
 0
VERTEX
 8
0
 10
-44.280208
 20
295.063452
 30
0.0
 0
VERTEX
 8
0
 10
-49.892726
 20
312.183478
 30
0.0
 0
VERTEX
 8
0
 10
-47.480220
 20
312.183478
 30
0.0
 0
VERTEX
 8
0
 10
-44.812709
 20
303.750952
 30
0.0
 0
VERTEX
 8
0
 10
-44.550228
 20
302.893470
 30
0.0
 0
VERTEX
 8
0
 10
-44.295223
 20
302.058478
 30
0.0
 0
VERTEX
 8
0
 10
-44.050228
 20
301.238471
 30
0.0
 0
VERTEX
 8
0
 10
-43.812709
 20
300.435981
 30
0.0
 0
VERTEX
 8
0
 10
-43.375209
 20
298.870978
 30
0.0
 0
VERTEX
 8
0
 10
-42.985225
 20
297.348456
 30
0.0
 0
VERTEX
 8
0
 10
-42.932735
 20
297.348456
 30
0.0
 0
VERTEX
 8
0
 10
-42.742732
 20
298.100959
 30
0.0
 0
VERTEX
 8
0
 10
-42.535213
 20
298.865973
 30
0.0
 0
VERTEX
 8
0
 10
-42.310207
 20
299.648474
 30
0.0
 0
VERTEX
 8
0
 10
-42.070217
 20
300.443457
 30
0.0
 0
VERTEX
 8
0
 10
-41.547725
 20
302.065955
 30
0.0
 0
VERTEX
 8
0
 10
-40.977718
 20
303.725959
 30
0.0
 0
VERTEX
 8
0
 10
-38.082729
 20
312.183478
 30
0.0
 0
VERTEX
 8
0
 10
-35.720210
 20
312.183478
 30
0.0
 0
VERTEX
 8
0
 10
-41.840236
 20
295.063452
 30
0.0
 0
SEQEND
 8
0
 0
POLYLINE
 8
0
 62
7
 66
 1
 10
0.0
 20
0.0
 30
0.0
 70
1
 0
VERTEX
 8
0
 10
270.422261
 20
347.210974
 30
0.0
 0
VERTEX
 8
0
 10
272.657261
 20
347.210974
 30
0.0
 0
VERTEX
 8
0
 10
272.657261
 20
331.943457
 30
0.0
 0
VERTEX
 8
0
 10
279.972256
 20
331.943457
 30
0.0
 0
VERTEX
 8
0
 10
279.972256
 20
330.088477
 30
0.0
 0
VERTEX
 8
0
 10
270.422261
 20
330.088477
 30
0.0
 0
SEQEND
 8
0
 0
POLYLINE
 8
0
 62
7
 66
 1
 10
0.0
 20
0.0
 30
0.0
 70
1
 0
VERTEX
 8
0
 10
247.404759
 20
338.115973
 30
0.0
 0
VERTEX
 8
0
 10
240.777264
 20
338.115973
 30
0.0
 0
VERTEX
 8
0
 10
240.777264
 20
331.943457
 30
0.0
 0
VERTEX
 8
0
 10
248.192258
 20
331.943457
 30
0.0
 0
VERTEX
 8
0
 10
248.192258
 20
330.088477
 30
0.0
 0
VERTEX
 8
0
 10
238.539761
 20
330.088477
 30
0.0
 0
VERTEX
 8
0
 10
238.539761
 20
347.210974
 30
0.0
 0
VERTEX
 8
0
 10
247.812260
 20
347.210974
 30
0.0
 0
VERTEX
 8
0
 10
247.812260
 20
345.355963
 30
0.0
 0
VERTEX
 8
0
 10
240.777264
 20
345.355963
 30
0.0
 0
VERTEX
 8
0
 10
240.777264
 20
339.945960
 30
0.0
 0
VERTEX
 8
0
 10
247.404759
 20
339.945960
 30
0.0
 0
SEQEND
 8
0
 0
POLYLINE
 8
0
 62
7
 66
 1
 10
0.0
 20
0.0
 30
0.0
 70
1
 0
VERTEX
 8
0
 10
210.404759
 20
345.330970
 30
0.0
 0
VERTEX
 8
0
 10
205.197270
 20
345.330970
 30
0.0
 0
VERTEX
 8
0
 10
205.197270
 20
347.210974
 30
0.0
 0
VERTEX
 8
0
 10
217.874760
 20
347.210974
 30
0.0
 0
VERTEX
 8
0
 10
217.874760
 20
345.330970
 30
0.0
 0
VERTEX
 8
0
 10
212.642262
 20
345.330970
 30
0.0
 0
VERTEX
 8
0
 10
212.642262
 20
330.088477
 30
0.0
 0
VERTEX
 8
0
 10
210.404759
 20
330.088477
 30
0.0
 0
SEQEND
 8
0
 0
POLYLINE
 8
0
 62
7
 66
 1
 10
0.0
 20
0.0
 30
0.0
 70
1
 0
VERTEX
 8
0
 10
151.914769
 20
338.115973
 30
0.0
 0
VERTEX
 8
0
 10
145.284764
 20
338.115973
 30
0.0
 0
VERTEX
 8
0
 10
145.284764
 20
331.943457
 30
0.0
 0
VERTEX
 8
0
 10
152.702260
 20
331.943457
 30
0.0
 0
VERTEX
 8
0
 10
152.702260
 20
330.088477
 30
0.0
 0
VERTEX
 8
0
 10
143.049763
 20
330.088477
 30
0.0
 0
VERTEX
 8
0
 10
143.049763
 20
347.210974
 30
0.0
 0
VERTEX
 8
0
 10
152.322270
 20
347.210974
 30
0.0
 0
VERTEX
 8
0
 10
152.322270
 20
345.355963
 30
0.0
 0
VERTEX
 8
0
 10
145.284764
 20
345.355963
 30
0.0
 0
VERTEX
 8
0
 10
145.284764
 20
339.945960
 30
0.0
 0
VERTEX
 8
0
 10
151.914769
 20
339.945960
 30
0.0
 0
SEQEND
 8
0
 0
POLYLINE
 8
0
 62
7
 66
 1
 10
0.0
 20
0.0
 30
0.0
 70
1
 0
VERTEX
 8
0
 10
117.164769
 20
330.088477
 30
0.0
 0
VERTEX
 8
0
 10
114.929768
 20
330.088477
 30
0.0
 0
VERTEX
 8
0
 10
114.929768
 20
347.210974
 30
0.0
 0
VERTEX
 8
0
 10
117.164769
 20
347.210974
 30
0.0
 0
SEQEND
 8
0
 0
POLYLINE
 8
0
 62
7
 66
 1
 10
0.0
 20
0.0
 30
0.0
 70
1
 0
VERTEX
 8
0
 10
82.742283
 20
330.088477
 30
0.0
 0
VERTEX
 8
0
 10
77.129765
 20
347.210974
 30
0.0
 0
VERTEX
 8
0
 10
79.542271
 20
347.210974
 30
0.0
 0
VERTEX
 8
0
 10
82.209782
 20
338.775977
 30
0.0
 0
VERTEX
 8
0
 10
82.472264
 20
337.920966
 30
0.0
 0
VERTEX
 8
0
 10
82.727269
 20
337.083472
 30
0.0
 0
VERTEX
 8
0
 10
82.974766
 20
336.265967
 30
0.0
 0
VERTEX
 8
0
 10
83.209782
 20
335.463477
 30
0.0
 0
VERTEX
 8
0
 10
83.649785
 20
333.898474
 30
0.0
 0
VERTEX
 8
0
 10
84.039769
 20
332.375952
 30
0.0
 0
VERTEX
 8
0
 10
84.089787
 20
332.375952
 30
0.0
 0
VERTEX
 8
0
 10
84.279790
 20
333.125952
 30
0.0
 0
VERTEX
 8
0
 10
84.487279
 20
333.893470
 30
0.0
 0
VERTEX
 8
0
 10
84.712285
 20
334.673468
 30
0.0
 0
VERTEX
 8
0
 10
84.952275
 20
335.468451
 30
0.0
 0
VERTEX
 8
0
 10
85.474766
 20
337.090979
 30
0.0
 0
VERTEX
 8
0
 10
86.044774
 20
338.750952
 30
0.0
 0
VERTEX
 8
0
 10
88.939763
 20
347.210974
 30
0.0
 0
VERTEX
 8
0
 10
91.304783
 20
347.210974
 30
0.0
 0
VERTEX
 8
0
 10
85.182286
 20
330.088477
 30
0.0
 0
SEQEND
 8
0
 0
POLYLINE
 8
0
 62
7
 66
 1
 10
0.0
 20
0.0
 30
0.0
 70
1
 0
VERTEX
 8
0
 10
53.504765
 20
330.088477
 30
0.0
 0
VERTEX
 8
0
 10
51.269780
 20
330.088477
 30
0.0
 0
VERTEX
 8
0
 10
51.269780
 20
347.210974
 30
0.0
 0
VERTEX
 8
0
 10
53.504765
 20
347.210974
 30
0.0
 0
SEQEND
 8
0
 0
POLYLINE
 8
0
 62
7
 66
 1
 10
0.0
 20
0.0
 30
0.0
 70
1
 0
VERTEX
 8
0
 10
24.594792
 20
338.115973
 30
0.0
 0
VERTEX
 8
0
 10
17.964787
 20
338.115973
 30
0.0
 0
VERTEX
 8
0
 10
17.964787
 20
331.943457
 30
0.0
 0
VERTEX
 8
0
 10
25.382268
 20
331.943457
 30
0.0
 0
VERTEX
 8
0
 10
25.382268
 20
330.088477
 30
0.0
 0
VERTEX
 8
0
 10
15.729771
 20
330.088477
 30
0.0
 0
VERTEX
 8
0
 10
15.729771
 20
347.210974
 30
0.0
 0
VERTEX
 8
0
 10
25.002263
 20
347.210974
 30
0.0
 0
VERTEX
 8
0
 10
25.002263
 20
345.355963
 30
0.0
 0
VERTEX
 8
0
 10
17.964787
 20
345.355963
 30
0.0
 0
VERTEX
 8
0
 10
17.964787
 20
339.945960
 30
0.0
 0
VERTEX
 8
0
 10
24.594792
 20
339.945960
 30
0.0
 0
SEQEND
 8
0
 0
POLYLINE
 8
0
 62
7
 66
 1
 10
0.0
 20
0.0
 30
0.0
 70
1
 0
VERTEX
 8
0
 10
282.237263
 20
365.878455
 30
0.0
 0
VERTEX
 8
0
 10
282.039761
 20
365.805976
 30
0.0
 0
VERTEX
 8
0
 10
281.819760
 20
365.728461
 30
0.0
 0
VERTEX
 8
0
 10
281.579762
 20
365.648474
 30
0.0
 0
VERTEX
 8
0
 10
281.319760
 20
365.570960
 30
0.0
 0
VERTEX
 8
0
 10
281.039761
 20
365.490973
 30
0.0
 0
VERTEX
 8
0
 10
280.739758
 20
365.413459
 30
0.0
 0
VERTEX
 8
0
 10
280.422261
 20
365.338477
 30
0.0
 0
VERTEX
 8
0
 10
280.089757
 20
365.265967
 30
0.0
 0
VERTEX
 8
0
 10
279.742261
 20
365.198462
 30
0.0
 0
VERTEX
 8
0
 10
279.379758
 20
365.135962
 30
0.0
 0
VERTEX
 8
0
 10
278.614758
 20
365.030951
 30
0.0
 0
VERTEX
 8
0
 10
277.802258
 20
364.963477
 30
0.0
 0
VERTEX
 8
0
 10
276.952260
 20
364.938452
 30
0.0
 0
VERTEX
 8
0
 10
276.472256
 20
364.945960
 30
0.0
 0
VERTEX
 8
0
 10
276.002263
 20
364.970954
 30
0.0
 0
VERTEX
 8
0
 10
275.542264
 20
365.010962
 30
0.0
 0
VERTEX
 8
0
 10
275.094761
 20
365.065955
 30
0.0
 0
VERTEX
 8
0
 10
274.657261
 20
365.140967
 30
0.0
 0
VERTEX
 8
0
 10
274.229764
 20
365.230963
 30
0.0
 0
VERTEX
 8
0
 10
273.814763
 20
365.340979
 30
0.0
 0
VERTEX
 8
0
 10
273.409756
 20
365.468451
 30
0.0
 0
VERTEX
 8
0
 10
273.014760
 20
365.615973
 30
0.0
 0
VERTEX
 8
0
 10
272.629758
 20
365.780951
 30
0.0
 0
VERTEX
 8
0
 10
272.257260
 20
365.965979
 30
0.0
 0
VERTEX
 8
0
 10
271.894757
 20
366.170966
 30
0.0
 0
VERTEX
 8
0
 10
271.542264
 20
366.395972
 30
0.0
 0
VERTEX
 8
0
 10
271.202260
 20
366.640967
 30
0.0
 0
VERTEX
 8
0
 10
270.872258
 20
366.908454
 30
0.0
 0
VERTEX
 8
0
 10
270.552258
 20
367.198462
 30
0.0
 0
VERTEX
 8
0
 10
270.282261
 20
367.475959
 30
0.0
 0
VERTEX
 8
0
 10
270.027257
 20
367.770972
 30
0.0
 0
VERTEX
 8
0
 10
269.784764
 20
368.085974
 30
0.0
 0
VERTEX
 8
0
 10
269.557263
 20
368.420966
 30
0.0
 0
VERTEX
 8
0
 10
269.344761
 20
368.770972
 30
0.0
 0
VERTEX
 8
0
 10
269.149762
 20
369.138465
 30
0.0
 0
VERTEX
 8
0
 10
268.969761
 20
369.520972
 30
0.0
 0
VERTEX
 8
0
 10
268.804761
 20
369.920966
 30
0.0
 0
VERTEX
 8
0
 10
268.659764
 20
370.333472
 30
0.0
 0
VERTEX
 8
0
 10
268.532261
 20
370.760962
 30
0.0
 0
VERTEX
 8
0
 10
268.422261
 20
371.200965
 30
0.0
 0
VERTEX
 8
0
 10
268.329762
 20
371.653479
 30
0.0
 0
VERTEX
 8
0
 10
268.259762
 20
372.118476
 30
0.0
 0
VERTEX
 8
0
 10
268.207257
 20
372.593451
 30
0.0
 0
VERTEX
 8
0
 10
268.174763
 20
373.078467
 30
0.0
 0
VERTEX
 8
0
 10
268.164761
 20
373.573462
 30
0.0
 0
VERTEX
 8
0
 10
268.174763
 20
374.048468
 30
0.0
 0
VERTEX
 8
0
 10
268.204762
 20
374.513465
 30
0.0
 0
VERTEX
 8
0
 10
268.257260
 20
374.970954
 30
0.0
 0
VERTEX
 8
0
 10
268.327260
 20
375.418463
 30
0.0
 0
VERTEX
 8
0
 10
268.417264
 20
375.858466
 30
0.0
 0
VERTEX
 8
0
 10
268.527257
 20
376.285956
 30
0.0
 0
VERTEX
 8
0
 10
268.657261
 20
376.703467
 30
0.0
 0
VERTEX
 8
0
 10
268.807263
 20
377.108466
 30
0.0
 0
VERTEX
 8
0
 10
268.972264
 20
377.503455
 30
0.0
 0
VERTEX
 8
0
 10
269.159764
 20
377.885962
 30
0.0
 0
VERTEX
 8
0
 10
269.362263
 20
378.258460
 30
0.0
 0
VERTEX
 8
0
 10
269.584759
 20
378.615973
 30
0.0
 0
VERTEX
 8
0
 10
269.824757
 20
378.958472
 30
0.0
 0
VERTEX
 8
0
 10
270.082257
 20
379.290961
 30
0.0
 0
VERTEX
 8
0
 10
270.357258
 20
379.605963
 30
0.0
 0
VERTEX
 8
0
 10
270.647259
 20
379.908454
 30
0.0
 0
VERTEX
 8
0
 10
270.957257
 20
380.195960
 30
0.0
 0
VERTEX
 8
0
 10
271.282261
 20
380.468451
 30
0.0
 0
VERTEX
 8
0
 10
271.622258
 20
380.723456
 30
0.0
 0
VERTEX
 8
0
 10
271.979764
 20
380.963477
 30
0.0
 0
VERTEX
 8
0
 10
272.352261
 20
381.185950
 30
0.0
 0
VERTEX
 8
0
 10
272.742261
 20
381.390967
 30
0.0
 0
VERTEX
 8
0
 10
273.147259
 20
381.580970
 30
0.0
 0
VERTEX
 8
0
 10
273.567258
 20
381.750952
 30
0.0
 0
VERTEX
 8
0
 10
273.999760
 20
381.900977
 30
0.0
 0
VERTEX
 8
0
 10
274.449757
 20
382.035956
 30
0.0
 0
VERTEX
 8
0
 10
274.912259
 20
382.148474
 30
0.0
 0
VERTEX
 8
0
 10
275.389760
 20
382.243476
 30
0.0
 0
VERTEX
 8
0
 10
275.882260
 20
382.315955
 30
0.0
 0
VERTEX
 8
0
 10
276.387257
 20
382.368476
 30
0.0
 0
VERTEX
 8
0
 10
276.907261
 20
382.400977
 30
0.0
 0
VERTEX
 8
0
 10
277.437260
 20
382.413459
 30
0.0
 0
VERTEX
 8
0
 10
278.159756
 20
382.393470
 30
0.0
 0
VERTEX
 8
0
 10
278.839757
 20
382.340979
 30
0.0
 0
VERTEX
 8
0
 10
279.472256
 20
382.258460
 30
0.0
 0
VERTEX
 8
0
 10
280.049763
 20
382.153479
 30
0.0
 0
VERTEX
 8
0
 10
280.317258
 20
382.095954
 30
0.0
 0
VERTEX
 8
0
 10
280.569760
 20
382.033454
 30
0.0
 0
VERTEX
 8
0
 10
280.807263
 20
381.965979
 30
0.0
 0
VERTEX
 8
0
 10
281.027257
 20
381.900977
 30
0.0
 0
VERTEX
 8
0
 10
281.229764
 20
381.830970
 30
0.0
 0
VERTEX
 8
0
 10
281.414761
 20
381.763465
 30
0.0
 0
VERTEX
 8
0
 10
281.582257
 20
381.693457
 30
0.0
 0
VERTEX
 8
0
 10
281.729764
 20
381.625952
 30
0.0
 0
VERTEX
 8
0
 10
281.169758
 20
379.823462
 30
0.0
 0
VERTEX
 8
0
 10
280.814763
 20
379.978461
 30
0.0
 0
VERTEX
 8
0
 10
280.434758
 20
380.120978
 30
0.0
 0
VERTEX
 8
0
 10
280.024762
 20
380.245978
 30
0.0
 0
VERTEX
 8
0
 10
279.582257
 20
380.353461
 30
0.0
 0
VERTEX
 8
0
 10
279.099759
 20
380.440955
 30
0.0
 0
VERTEX
 8
0
 10
278.577260
 20
380.505957
 30
0.0
 0
VERTEX
 8
0
 10
278.004758
 20
380.545966
 30
0.0
 0
VERTEX
 8
0
 10
277.384762
 20
380.560950
 30
0.0
 0
VERTEX
 8
0
 10
276.999760
 20
380.553473
 30
0.0
 0
VERTEX
 8
0
 10
276.622258
 20
380.530951
 30
0.0
 0
VERTEX
 8
0
 10
275.892262
 20
380.440955
 30
0.0
 0
VERTEX
 8
0
 10
275.202260
 20
380.293463
 30
0.0
 0
VERTEX
 8
0
 10
274.552258
 20
380.088477
 30
0.0
 0
VERTEX
 8
0
 10
273.942258
 20
379.828467
 30
0.0
 0
VERTEX
 8
0
 10
273.374760
 20
379.513465
 30
0.0
 0
VERTEX
 8
0
 10
272.854764
 20
379.145972
 30
0.0
 0
VERTEX
 8
0
 10
272.379758
 20
378.728461
 30
0.0
 0
VERTEX
 8
0
 10
271.954762
 20
378.258460
 30
0.0
 0
VERTEX
 8
0
 10
271.579762
 20
377.740973
 30
0.0
 0
VERTEX
 8
0
 10
271.257260
 20
377.173468
 30
0.0
 0
VERTEX
 8
0
 10
270.989758
 20
376.563452
 30
0.0
 0
VERTEX
 8
0
 10
270.777257
 20
375.905951
 30
0.0
 0
VERTEX
 8
0
 10
270.694760
 20
375.558478
 30
0.0
 0
VERTEX
 8
0
 10
270.624760
 20
375.203467
 30
0.0
 0
VERTEX
 8
0
 10
270.569760
 20
374.835974
 30
0.0
 0
VERTEX
 8
0
 10
270.532261
 20
374.460974
 30
0.0
 0
VERTEX
 8
0
 10
270.507260
 20
374.073462
 30
0.0
 0
VERTEX
 8
0
 10
270.499760
 20
373.675971
 30
0.0
 0
VERTEX
 8
0
 10
270.507260
 20
373.273474
 30
0.0
 0
VERTEX
 8
0
 10
270.529759
 20
372.883460
 30
0.0
 0
VERTEX
 8
0
 10
270.619763
 20
372.133460
 30
0.0
 0
VERTEX
 8
0
 10
270.764760
 20
371.425971
 30
0.0
 0
VERTEX
 8
0
 10
270.967259
 20
370.763465
 30
0.0
 0
VERTEX
 8
0
 10
271.224759
 20
370.148474
 30
0.0
 0
VERTEX
 8
0
 10
271.532261
 20
369.580970
 30
0.0
 0
VERTEX
 8
0
 10
271.889760
 20
369.060950
 30
0.0
 0
VERTEX
 8
0
 10
272.297261
 20
368.593451
 30
0.0
 0
VERTEX
 8
0
 10
272.752263
 20
368.173468
 30
0.0
 0
VERTEX
 8
0
 10
273.252263
 20
367.805976
 30
0.0
 0
VERTEX
 8
0
 10
273.794758
 20
367.493476
 30
0.0
 0
VERTEX
 8
0
 10
274.379758
 20
367.233466
 30
0.0
 0
VERTEX
 8
0
 10
275.004758
 20
367.030951
 30
0.0
 0
VERTEX
 8
0
 10
275.669758
 20
366.883460
 30
0.0
 0
VERTEX
 8
0
 10
276.369763
 20
366.795966
 30
0.0
 0
VERTEX
 8
0
 10
276.734761
 20
366.773474
 30
0.0
 0
VERTEX
 8
0
 10
277.104764
 20
366.765967
 30
0.0
 0
VERTEX
 8
0
 10
277.627263
 20
366.775977
 30
0.0
 0
VERTEX
 8
0
 10
278.104764
 20
366.800971
 30
0.0
 0
VERTEX
 8
0
 10
278.539761
 20
366.843451
 30
0.0
 0
VERTEX
 8
0
 10
278.932263
 20
366.900977
 30
0.0
 0
VERTEX
 8
0
 10
279.279759
 20
366.968451
 30
0.0
 0
VERTEX
 8
0
 10
279.582257
 20
367.045966
 30
0.0
 0
VERTEX
 8
0
 10
279.839757
 20
367.130957
 30
0.0
 0
VERTEX
 8
0
 10
280.052258
 20
367.223456
 30
0.0
 0
VERTEX
 8
0
 10
280.052258
 20
372.330970
 30
0.0
 0
VERTEX
 8
0
 10
276.597256
 20
372.330970
 30
0.0
 0
VERTEX
 8
0
 10
276.597256
 20
374.108466
 30
0.0
 0
VERTEX
 8
0
 10
282.237263
 20
374.108466
 30
0.0
 0
SEQEND
 8
0
 0
POLYLINE
 8
0
 62
7
 66
 1
 10
0.0
 20
0.0
 30
0.0
 70
1
 0
VERTEX
 8
0
 10
244.514760
 20
365.115973
 30
0.0
 0
VERTEX
 8
0
 10
242.279759
 20
365.115973
 30
0.0
 0
VERTEX
 8
0
 10
242.279759
 20
382.235968
 30
0.0
 0
VERTEX
 8
0
 10
244.514760
 20
382.235968
 30
0.0
 0
SEQEND
 8
0
 0
POLYLINE
 8
0
 62
7
 66
 1
 10
0.0
 20
0.0
 30
0.0
 70
1
 0
VERTEX
 8
0
 10
205.347264
 20
366.410956
 30
0.0
 0
VERTEX
 8
0
 10
214.822270
 20
380.305976
 30
0.0
 0
VERTEX
 8
0
 10
214.822270
 20
380.383460
 30
0.0
 0
VERTEX
 8
0
 10
206.159764
 20
380.383460
 30
0.0
 0
VERTEX
 8
0
 10
206.159764
 20
382.235968
 30
0.0
 0
VERTEX
 8
0
 10
217.717259
 20
382.235968
 30
0.0
 0
VERTEX
 8
0
 10
217.717259
 20
380.890967
 30
0.0
 0
VERTEX
 8
0
 10
208.267262
 20
367.045966
 30
0.0
 0
VERTEX
 8
0
 10
208.267262
 20
366.970954
 30
0.0
 0
VERTEX
 8
0
 10
217.844761
 20
366.970954
 30
0.0
 0
VERTEX
 8
0
 10
217.844761
 20
365.115973
 30
0.0
 0
VERTEX
 8
0
 10
205.347264
 20
365.115973
 30
0.0
 0
SEQEND
 8
0
 0
POLYLINE
 8
0
 62
7
 66
 1
 10
0.0
 20
0.0
 30
0.0
 70
1
 0
VERTEX
 8
0
 10
173.367268
 20
365.115973
 30
0.0
 0
VERTEX
 8
0
 10
173.367268
 20
382.235968
 30
0.0
 0
VERTEX
 8
0
 10
175.807271
 20
382.235968
 30
0.0
 0
VERTEX
 8
0
 10
181.267262
 20
373.573462
 30
0.0
 0
VERTEX
 8
0
 10
181.722264
 20
372.830970
 30
0.0
 0
VERTEX
 8
0
 10
182.157261
 20
372.105963
 30
0.0
 0
VERTEX
 8
0
 10
182.572270
 20
371.393470
 30
0.0
 0
VERTEX
 8
0
 10
182.962269
 20
370.698462
 30
0.0
 0
VERTEX
 8
0
 10
183.332265
 20
370.013465
 30
0.0
 0
VERTEX
 8
0
 10
183.682271
 20
369.338477
 30
0.0
 0
VERTEX
 8
0
 10
184.009770
 20
368.670966
 30
0.0
 0
VERTEX
 8
0
 10
184.317265
 20
368.010962
 30
0.0
 0
VERTEX
 8
0
 10
184.392262
 20
368.035956
 30
0.0
 0
VERTEX
 8
0
 10
184.322270
 20
368.885962
 30
0.0
 0
VERTEX
 8
0
 10
184.267262
 20
369.725959
 30
0.0
 0
VERTEX
 8
0
 10
184.222264
 20
370.563452
 30
0.0
 0
VERTEX
 8
0
 10
184.189763
 20
371.413459
 30
0.0
 0
VERTEX
 8
0
 10
184.164769
 20
372.278479
 30
0.0
 0
VERTEX
 8
0
 10
184.149769
 20
373.170966
 30
0.0
 0
VERTEX
 8
0
 10
184.139760
 20
374.098456
 30
0.0
 0
VERTEX
 8
0
 10
184.137272
 20
375.073462
 30
0.0
 0
VERTEX
 8
0
 10
184.137272
 20
382.235968
 30
0.0
 0
VERTEX
 8
0
 10
186.222264
 20
382.235968
 30
0.0
 0
VERTEX
 8
0
 10
186.222264
 20
365.115973
 30
0.0
 0
VERTEX
 8
0
 10
183.984761
 20
365.115973
 30
0.0
 0
VERTEX
 8
0
 10
178.549763
 20
373.803473
 30
0.0
 0
VERTEX
 8
0
 10
177.667271
 20
375.238471
 30
0.0
 0
VERTEX
 8
0
 10
177.239766
 20
375.960974
 30
0.0
 0
VERTEX
 8
0
 10
176.827260
 20
376.680976
 30
0.0
 0
VERTEX
 8
0
 10
176.432271
 20
377.398474
 30
0.0
 0
VERTEX
 8
0
 10
176.057271
 20
378.110968
 30
0.0
 0
VERTEX
 8
0
 10
175.702260
 20
378.818457
 30
0.0
 0
VERTEX
 8
0
 10
175.374760
 20
379.518470
 30
0.0
 0
VERTEX
 8
0
 10
175.297261
 20
379.493476
 30
0.0
 0
VERTEX
 8
0
 10
175.374760
 20
377.878455
 30
0.0
 0
VERTEX
 8
0
 10
175.402272
 20
377.060950
 30
0.0
 0
VERTEX
 8
0
 10
175.422261
 20
376.218451
 30
0.0
 0
VERTEX
 8
0
 10
175.434773
 20
375.345954
 30
0.0
 0
VERTEX
 8
0
 10
175.444768
 20
374.430976
 30
0.0
 0
VERTEX
 8
0
 10
175.447270
 20
373.953467
 30
0.0
 0
VERTEX
 8
0
 10
175.449772
 20
373.463477
 30
0.0
 0
VERTEX
 8
0
 10
175.449772
 20
372.955970
 30
0.0
 0
VERTEX
 8
0
 10
175.449772
 20
372.430976
 30
0.0
 0
VERTEX
 8
0
 10
175.449772
 20
365.115973
 30
0.0
 0
SEQEND
 8
0
 0
POLYLINE
 8
0
 62
7
 66
 1
 10
0.0
 20
0.0
 30
0.0
 70
1
 0
VERTEX
 8
0
 10
110.082280
 20
365.115973
 30
0.0
 0
VERTEX
 8
0
 10
105.737279
 20
382.235968
 30
0.0
 0
VERTEX
 8
0
 10
108.074772
 20
382.235968
 30
0.0
 0
VERTEX
 8
0
 10
110.107274
 20
373.573462
 30
0.0
 0
VERTEX
 8
0
 10
110.477269
 20
371.980963
 30
0.0
 0
VERTEX
 8
0
 10
110.652272
 20
371.198462
 30
0.0
 0
VERTEX
 8
0
 10
110.817265
 20
370.433478
 30
0.0
 0
VERTEX
 8
0
 10
110.974766
 20
369.690955
 30
0.0
 0
VERTEX
 8
0
 10
111.122273
 20
368.975959
 30
0.0
 0
VERTEX
 8
0
 10
111.254765
 20
368.295966
 30
0.0
 0
VERTEX
 8
0
 10
111.377263
 20
367.655951
 30
0.0
 0
VERTEX
 8
0
 10
111.427266
 20
367.655951
 30
0.0
 0
VERTEX
 8
0
 10
111.544774
 20
368.308478
 30
0.0
 0
VERTEX
 8
0
 10
111.682271
 20
368.993476
 30
0.0
 0
VERTEX
 8
0
 10
111.837269
 20
369.703467
 30
0.0
 0
VERTEX
 8
0
 10
112.012272
 20
370.438452
 30
0.0
 0
VERTEX
 8
0
 10
112.199772
 20
371.198462
 30
0.0
 0
VERTEX
 8
0
 10
112.399769
 20
371.978461
 30
0.0
 0
VERTEX
 8
0
 10
112.607274
 20
372.780951
 30
0.0
 0
VERTEX
 8
0
 10
112.824772
 20
373.600959
 30
0.0
 0
VERTEX
 8
0
 10
115.112263
 20
382.235968
 30
0.0
 0
VERTEX
 8
0
 10
117.422261
 20
382.235968
 30
0.0
 0
VERTEX
 8
0
 10
119.504765
 20
373.548468
 30
0.0
 0
VERTEX
 8
0
 10
119.859761
 20
372.028479
 30
0.0
 0
VERTEX
 8
0
 10
120.187260
 20
370.528479
 30
0.0
 0
VERTEX
 8
0
 10
120.337269
 20
369.795966
 30
0.0
 0
VERTEX
 8
0
 10
120.472264
 20
369.073462
 30
0.0
 0
VERTEX
 8
0
 10
120.594761
 20
368.368476
 30
0.0
 0
VERTEX
 8
0
 10
120.699772
 20
367.680976
 30
0.0
 0
VERTEX
 8
0
 10
120.749760
 20
367.680976
 30
0.0
 0
VERTEX
 8
0
 10
121.039769
 20
369.098456
 30
0.0
 0
VERTEX
 8
0
 10
121.369771
 20
370.545966
 30
0.0
 0
VERTEX
 8
0
 10
121.547261
 20
371.285956
 30
0.0
 0
VERTEX
 8
0
 10
121.732274
 20
372.038459
 30
0.0
 0
VERTEX
 8
0
 10
121.924763
 20
372.810950
 30
0.0
 0
VERTEX
 8
0
 10
122.122273
 20
373.600959
 30
0.0
 0
VERTEX
 8
0
 10
124.382268
 20
382.235968
 30
0.0
 0
VERTEX
 8
0
 10
126.642262
 20
382.235968
 30
0.0
 0
VERTEX
 8
0
 10
121.792271
 20
365.115973
 30
0.0
 0
VERTEX
 8
0
 10
119.479771
 20
365.115973
 30
0.0
 0
VERTEX
 8
0
 10
117.322270
 20
374.030951
 30
0.0
 0
VERTEX
 8
0
 10
117.129765
 20
374.828467
 30
0.0
 0
VERTEX
 8
0
 10
116.954762
 20
375.583472
 30
0.0
 0
VERTEX
 8
0
 10
116.792271
 20
376.303473
 30
0.0
 0
VERTEX
 8
0
 10
116.647267
 20
376.998450
 30
0.0
 0
VERTEX
 8
0
 10
116.517262
 20
377.668463
 30
0.0
 0
VERTEX
 8
0
 10
116.399769
 20
378.325965
 30
0.0
 0
VERTEX
 8
0
 10
116.202275
 20
379.620978
 30
0.0
 0
VERTEX
 8
0
 10
116.152272
 20
379.620978
 30
0.0
 0
VERTEX
 8
0
 10
115.917271
 20
378.340979
 30
0.0
 0
VERTEX
 8
0
 10
115.779774
 20
377.685950
 30
0.0
 0
VERTEX
 8
0
 10
115.624760
 20
377.015967
 30
0.0
 0
VERTEX
 8
0
 10
115.454762
 20
376.320960
 30
0.0
 0
VERTEX
 8
0
 10
115.267262
 20
375.598456
 30
0.0
 0
VERTEX
 8
0
 10
115.059773
 20
374.835974
 30
0.0
 0
VERTEX
 8
0
 10
114.832265
 20
374.030951
 30
0.0
 0
VERTEX
 8
0
 10
112.392262
 20
365.115973
 30
0.0
 0
SEQEND
 8
0
 0
POLYLINE
 8
0
 62
7
 66
 1
 10
0.0
 20
0.0
 30
0.0
 70
1
 0
VERTEX
 8
0
 10
78.139775
 20
366.410956
 30
0.0
 0
VERTEX
 8
0
 10
87.614781
 20
380.305976
 30
0.0
 0
VERTEX
 8
0
 10
87.614781
 20
380.383460
 30
0.0
 0
VERTEX
 8
0
 10
78.952275
 20
380.383460
 30
0.0
 0
VERTEX
 8
0
 10
78.952275
 20
382.235968
 30
0.0
 0
VERTEX
 8
0
 10
90.509770
 20
382.235968
 30
0.0
 0
VERTEX
 8
0
 10
90.509770
 20
380.890967
 30
0.0
 0
VERTEX
 8
0
 10
81.059788
 20
367.045966
 30
0.0
 0
VERTEX
 8
0
 10
81.059788
 20
366.970954
 30
0.0
 0
VERTEX
 8
0
 10
90.637272
 20
366.970954
 30
0.0
 0
VERTEX
 8
0
 10
90.637272
 20
365.115973
 30
0.0
 0
VERTEX
 8
0
 10
78.139775
 20
365.115973
 30
0.0
 0
SEQEND
 8
0
 0
POLYLINE
 8
0
 62
7
 66
 1
 10
0.0
 20
0.0
 30
0.0
 70
1
 0
VERTEX
 8
0
 10
46.159764
 20
365.115973
 30
0.0
 0
VERTEX
 8
0
 10
46.159764
 20
382.235968
 30
0.0
 0
VERTEX
 8
0
 10
48.597264
 20
382.235968
 30
0.0
 0
VERTEX
 8
0
 10
54.059788
 20
373.573462
 30
0.0
 0
VERTEX
 8
0
 10
54.514775
 20
372.830970
 30
0.0
 0
VERTEX
 8
0
 10
54.949772
 20
372.105963
 30
0.0
 0
VERTEX
 8
0
 10
55.362279
 20
371.393470
 30
0.0
 0
VERTEX
 8
0
 10
55.754765
 20
370.698462
 30
0.0
 0
VERTEX
 8
0
 10
56.124791
 20
370.013465
 30
0.0
 0
VERTEX
 8
0
 10
56.474766
 20
369.338477
 30
0.0
 0
VERTEX
 8
0
 10
56.802281
 20
368.670966
 30
0.0
 0
VERTEX
 8
0
 10
57.107274
 20
368.010962
 30
0.0
 0
VERTEX
 8
0
 10
57.184788
 20
368.035956
 30
0.0
 0
VERTEX
 8
0
 10
57.114781
 20
368.885962
 30
0.0
 0
VERTEX
 8
0
 10
57.059788
 20
369.725959
 30
0.0
 0
VERTEX
 8
0
 10
57.014775
 20
370.563452
 30
0.0
 0
VERTEX
 8
0
 10
56.982274
 20
371.413459
 30
0.0
 0
VERTEX
 8
0
 10
56.957280
 20
372.278479
 30
0.0
 0
VERTEX
 8
0
 10
56.942265
 20
373.170966
 30
0.0
 0
VERTEX
 8
0
 10
56.932286
 20
374.098456
 30
0.0
 0
VERTEX
 8
0
 10
56.929783
 20
375.073462
 30
0.0
 0
VERTEX
 8
0
 10
56.929783
 20
382.235968
 30
0.0
 0
VERTEX
 8
0
 10
59.012272
 20
382.235968
 30
0.0
 0
VERTEX
 8
0
 10
59.012272
 20
365.115973
 30
0.0
 0
VERTEX
 8
0
 10
56.777287
 20
365.115973
 30
0.0
 0
VERTEX
 8
0
 10
51.342290
 20
373.803473
 30
0.0
 0
VERTEX
 8
0
 10
50.459782
 20
375.238471
 30
0.0
 0
VERTEX
 8
0
 10
50.032261
 20
375.960974
 30
0.0
 0
VERTEX
 8
0
 10
49.619786
 20
376.680976
 30
0.0
 0
VERTEX
 8
0
 10
49.224766
 20
377.398474
 30
0.0
 0
VERTEX
 8
0
 10
48.849766
 20
378.110968
 30
0.0
 0
VERTEX
 8
0
 10
48.494786
 20
378.818457
 30
0.0
 0
VERTEX
 8
0
 10
48.167271
 20
379.518470
 30
0.0
 0
VERTEX
 8
0
 10
48.089787
 20
379.493476
 30
0.0
 0
VERTEX
 8
0
 10
48.167271
 20
377.878455
 30
0.0
 0
VERTEX
 8
0
 10
48.194768
 20
377.060950
 30
0.0
 0
VERTEX
 8
0
 10
48.214787
 20
376.218451
 30
0.0
 0
VERTEX
 8
0
 10
48.227269
 20
375.345954
 30
0.0
 0
VERTEX
 8
0
 10
48.237279
 20
374.430976
 30
0.0
 0
VERTEX
 8
0
 10
48.239781
 20
373.953467
 30
0.0
 0
VERTEX
 8
0
 10
48.239781
 20
373.463477
 30
0.0
 0
VERTEX
 8
0
 10
48.242283
 20
372.955970
 30
0.0
 0
VERTEX
 8
0
 10
48.242283
 20
372.430976
 30
0.0
 0
VERTEX
 8
0
 10
48.242283
 20
365.115973
 30
0.0
 0
SEQEND
 8
0
 0
POLYLINE
 8
0
 62
7
 66
 1
 10
0.0
 20
0.0
 30
0.0
 70
1
 0
VERTEX
 8
0
 10
16.644780
 20
382.235968
 30
0.0
 0
VERTEX
 8
0
 10
16.644780
 20
375.073462
 30
0.0
 0
VERTEX
 8
0
 10
24.924779
 20
375.073462
 30
0.0
 0
VERTEX
 8
0
 10
24.924779
 20
382.235968
 30
0.0
 0
VERTEX
 8
0
 10
27.159764
 20
382.235968
 30
0.0
 0
VERTEX
 8
0
 10
27.159764
 20
365.115973
 30
0.0
 0
VERTEX
 8
0
 10
24.924779
 20
365.115973
 30
0.0
 0
VERTEX
 8
0
 10
24.924779
 20
373.143470
 30
0.0
 0
VERTEX
 8
0
 10
16.644780
 20
373.143470
 30
0.0
 0
VERTEX
 8
0
 10
16.644780
 20
365.115973
 30
0.0
 0
VERTEX
 8
0
 10
14.409764
 20
365.115973
 30
0.0
 0
VERTEX
 8
0
 10
14.409764
 20
382.235968
 30
0.0
 0
SEQEND
 8
0
 0
POLYLINE
 8
0
 62
7
 66
 1
 10
0.0
 20
0.0
 30
0.0
 70
1
 0
VERTEX
 8
0
 10
-6.977718
 20
373.143470
 30
0.0
 0
VERTEX
 8
0
 10
-13.607723
 20
373.143470
 30
0.0
 0
VERTEX
 8
0
 10
-13.607723
 20
366.970954
 30
0.0
 0
VERTEX
 8
0
 10
-6.190212
 20
366.970954
 30
0.0
 0
VERTEX
 8
0
 10
-6.190212
 20
365.115973
 30
0.0
 0
VERTEX
 8
0
 10
-15.842708
 20
365.115973
 30
0.0
 0
VERTEX
 8
0
 10
-15.842708
 20
382.235968
 30
0.0
 0
VERTEX
 8
0
 10
-6.572719
 20
382.235968
 30
0.0
 0
VERTEX
 8
0
 10
-6.572719
 20
380.383460
 30
0.0
 0
VERTEX
 8
0
 10
-13.607723
 20
380.383460
 30
0.0
 0
VERTEX
 8
0
 10
-13.607723
 20
374.970954
 30
0.0
 0
VERTEX
 8
0
 10
-6.977718
 20
374.970954
 30
0.0
 0
SEQEND
 8
0
 0
POLYLINE
 8
0
 62
7
 66
 1
 10
0.0
 20
0.0
 30
0.0
 70
1
 0
VERTEX
 8
0
 10
-49.067714
 20
366.410956
 30
0.0
 0
VERTEX
 8
0
 10
-39.592708
 20
380.305976
 30
0.0
 0
VERTEX
 8
0
 10
-39.592708
 20
380.383460
 30
0.0
 0
VERTEX
 8
0
 10
-48.255214
 20
380.383460
 30
0.0
 0
VERTEX
 8
0
 10
-48.255214
 20
382.235968
 30
0.0
 0
VERTEX
 8
0
 10
-36.697719
 20
382.235968
 30
0.0
 0
VERTEX
 8
0
 10
-36.697719
 20
380.890967
 30
0.0
 0
VERTEX
 8
0
 10
-46.147731
 20
367.045966
 30
0.0
 0
VERTEX
 8
0
 10
-46.147731
 20
366.970954
 30
0.0
 0
VERTEX
 8
0
 10
-36.570217
 20
366.970954
 30
0.0
 0
VERTEX
 8
0
 10
-36.570217
 20
365.115973
 30
0.0
 0
VERTEX
 8
0
 10
-49.067714
 20
365.115973
 30
0.0
 0
SEQEND
 8
0
 0
POLYLINE
 8
0
 62
7
 66
 1
 10
0.0
 20
0.0
 30
0.0
 70
1
 0
VERTEX
 8
0
 10
270.674763
 20
417.263465
 30
0.0
 0
VERTEX
 8
0
 10
279.894757
 20
417.263465
 30
0.0
 0
VERTEX
 8
0
 10
279.894757
 20
415.408454
 30
0.0
 0
VERTEX
 8
0
 10
272.909756
 20
415.408454
 30
0.0
 0
VERTEX
 8
0
 10
272.909756
 20
409.718451
 30
0.0
 0
VERTEX
 8
0
 10
279.362263
 20
409.718451
 30
0.0
 0
VERTEX
 8
0
 10
279.362263
 20
407.888465
 30
0.0
 0
VERTEX
 8
0
 10
272.909756
 20
407.888465
 30
0.0
 0
VERTEX
 8
0
 10
272.909756
 20
400.140967
 30
0.0
 0
VERTEX
 8
0
 10
270.674763
 20
400.140967
 30
0.0
 0
SEQEND
 8
0
 0
POLYLINE
 8
0
 62
7
 66
 1
 10
0.0
 20
0.0
 30
0.0
 70
1
 0
VERTEX
 8
0
 10
237.049763
 20
400.140967
 30
0.0
 0
VERTEX
 8
0
 10
237.049763
 20
417.263465
 30
0.0
 0
VERTEX
 8
0
 10
239.489758
 20
417.263465
 30
0.0
 0
VERTEX
 8
0
 10
244.949757
 20
408.600959
 30
0.0
 0
VERTEX
 8
0
 10
245.404759
 20
407.858466
 30
0.0
 0
VERTEX
 8
0
 10
245.839764
 20
407.130957
 30
0.0
 0
VERTEX
 8
0
 10
246.254758
 20
406.420966
 30
0.0
 0
VERTEX
 8
0
 10
246.647259
 20
405.723456
 30
0.0
 0
VERTEX
 8
0
 10
247.017262
 20
405.038459
 30
0.0
 0
VERTEX
 8
0
 10
247.367261
 20
404.363471
 30
0.0
 0
VERTEX
 8
0
 10
247.694760
 20
403.698462
 30
0.0
 0
VERTEX
 8
0
 10
247.999760
 20
403.038459
 30
0.0
 0
VERTEX
 8
0
 10
248.074757
 20
403.063452
 30
0.0
 0
VERTEX
 8
0
 10
248.004758
 20
403.913459
 30
0.0
 0
VERTEX
 8
0
 10
247.949757
 20
404.750952
 30
0.0
 0
VERTEX
 8
0
 10
247.904759
 20
405.590949
 30
0.0
 0
VERTEX
 8
0
 10
247.872258
 20
406.438452
 30
0.0
 0
VERTEX
 8
0
 10
247.847264
 20
407.303473
 30
0.0
 0
VERTEX
 8
0
 10
247.832257
 20
408.195960
 30
0.0
 0
VERTEX
 8
0
 10
247.822262
 20
409.125952
 30
0.0
 0
VERTEX
 8
0
 10
247.819760
 20
410.098456
 30
0.0
 0
VERTEX
 8
0
 10
247.819760
 20
417.263465
 30
0.0
 0
VERTEX
 8
0
 10
249.904759
 20
417.263465
 30
0.0
 0
VERTEX
 8
0
 10
249.904759
 20
400.140967
 30
0.0
 0
VERTEX
 8
0
 10
247.667264
 20
400.140967
 30
0.0
 0
VERTEX
 8
0
 10
242.232258
 20
408.828467
 30
0.0
 0
VERTEX
 8
0
 10
241.349759
 20
410.263465
 30
0.0
 0
VERTEX
 8
0
 10
240.924763
 20
410.985968
 30
0.0
 0
VERTEX
 8
0
 10
240.512257
 20
411.705970
 30
0.0
 0
VERTEX
 8
0
 10
240.114758
 20
412.423468
 30
0.0
 0
VERTEX
 8
0
 10
239.739758
 20
413.135962
 30
0.0
 0
VERTEX
 8
0
 10
239.384762
 20
413.843451
 30
0.0
 0
VERTEX
 8
0
 10
239.057263
 20
414.543463
 30
0.0
 0
VERTEX
 8
0
 10
238.982258
 20
414.518470
 30
0.0
 0
VERTEX
 8
0
 10
239.057263
 20
412.905951
 30
0.0
 0
VERTEX
 8
0
 10
239.084759
 20
412.085974
 30
0.0
 0
VERTEX
 8
0
 10
239.104764
 20
411.245978
 30
0.0
 0
VERTEX
 8
0
 10
239.117261
 20
410.373450
 30
0.0
 0
VERTEX
 8
0
 10
239.127263
 20
409.458472
 30
0.0
 0
VERTEX
 8
0
 10
239.129758
 20
408.980963
 30
0.0
 0
VERTEX
 8
0
 10
239.129758
 20
408.490973
 30
0.0
 0
VERTEX
 8
0
 10
239.132260
 20
407.983466
 30
0.0
 0
VERTEX
 8
0
 10
239.132260
 20
407.458472
 30
0.0
 0
VERTEX
 8
0
 10
239.132260
 20
400.140967
 30
0.0
 0
SEQEND
 8
0
 0
POLYLINE
 8
0
 62
7
 66
 1
 10
0.0
 20
0.0
 30
0.0
 70
1
 0
VERTEX
 8
0
 10
212.852269
 20
420.128455
 30
0.0
 0
VERTEX
 8
0
 10
212.877263
 20
420.378455
 30
0.0
 0
VERTEX
 8
0
 10
212.947270
 20
420.615973
 30
0.0
 0
VERTEX
 8
0
 10
213.059758
 20
420.830970
 30
0.0
 0
VERTEX
 8
0
 10
213.209767
 20
421.020972
 30
0.0
 0
VERTEX
 8
0
 10
213.397267
 20
421.178473
 30
0.0
 0
VERTEX
 8
0
 10
213.612263
 20
421.295966
 30
0.0
 0
VERTEX
 8
0
 10
213.854771
 20
421.370978
 30
0.0
 0
VERTEX
 8
0
 10
214.122258
 20
421.398474
 30
0.0
 0
VERTEX
 8
0
 10
214.377263
 20
421.373450
 30
0.0
 0
VERTEX
 8
0
 10
214.612263
 20
421.300971
 30
0.0
 0
VERTEX
 8
0
 10
214.819768
 20
421.183478
 30
0.0
 0
VERTEX
 8
0
 10
214.997258
 20
421.030951
 30
0.0
 0
VERTEX
 8
0
 10
215.142262
 20
420.843451
 30
0.0
 0
VERTEX
 8
0
 10
215.249760
 20
420.628455
 30
0.0
 0
VERTEX
 8
0
 10
215.317265
 20
420.388465
 30
0.0
 0
VERTEX
 8
0
 10
215.339772
 20
420.128455
 30
0.0
 0
VERTEX
 8
0
 10
215.317265
 20
419.868476
 30
0.0
 0
VERTEX
 8
0
 10
215.252263
 20
419.625952
 30
0.0
 0
VERTEX
 8
0
 10
215.144765
 20
419.405951
 30
0.0
 0
VERTEX
 8
0
 10
214.999760
 20
419.215949
 30
0.0
 0
VERTEX
 8
0
 10
214.817265
 20
419.055976
 30
0.0
 0
VERTEX
 8
0
 10
214.599766
 20
418.935950
 30
0.0
 0
VERTEX
 8
0
 10
214.349766
 20
418.860968
 30
0.0
 0
VERTEX
 8
0
 10
214.069768
 20
418.833472
 30
0.0
 0
VERTEX
 8
0
 10
213.814763
 20
418.860968
 30
0.0
 0
VERTEX
 8
0
 10
213.579762
 20
418.935950
 30
0.0
 0
VERTEX
 8
0
 10
213.372258
 20
419.055976
 30
0.0
 0
VERTEX
 8
0
 10
213.194768
 20
419.215949
 30
0.0
 0
VERTEX
 8
0
 10
213.049763
 20
419.405951
 30
0.0
 0
VERTEX
 8
0
 10
212.942265
 20
419.625952
 30
0.0
 0
VERTEX
 8
0
 10
212.874760
 20
419.868476
 30
0.0
 0
SEQEND
 8
0
 0
POLYLINE
 8
0
 62
7
 66
 1
 10
0.0
 20
0.0
 30
0.0
 70
1
 0
VERTEX
 8
0
 10
208.124760
 20
420.128455
 30
0.0
 0
VERTEX
 8
0
 10
208.149769
 20
420.378455
 30
0.0
 0
VERTEX
 8
0
 10
208.219761
 20
420.615973
 30
0.0
 0
VERTEX
 8
0
 10
208.332265
 20
420.830970
 30
0.0
 0
VERTEX
 8
0
 10
208.479771
 20
421.020972
 30
0.0
 0
VERTEX
 8
0
 10
208.664769
 20
421.178473
 30
0.0
 0
VERTEX
 8
0
 10
208.874760
 20
421.295966
 30
0.0
 0
VERTEX
 8
0
 10
209.112263
 20
421.370978
 30
0.0
 0
VERTEX
 8
0
 10
209.369771
 20
421.398474
 30
0.0
 0
VERTEX
 8
0
 10
209.627263
 20
421.373450
 30
0.0
 0
VERTEX
 8
0
 10
209.859761
 20
421.300971
 30
0.0
 0
VERTEX
 8
0
 10
210.069768
 20
421.183478
 30
0.0
 0
VERTEX
 8
0
 10
210.247258
 20
421.030951
 30
0.0
 0
VERTEX
 8
0
 10
210.392262
 20
420.843451
 30
0.0
 0
VERTEX
 8
0
 10
210.499760
 20
420.628455
 30
0.0
 0
VERTEX
 8
0
 10
210.567265
 20
420.388465
 30
0.0
 0
VERTEX
 8
0
 10
210.589772
 20
420.128455
 30
0.0
 0
VERTEX
 8
0
 10
210.567265
 20
419.868476
 30
0.0
 0
VERTEX
 8
0
 10
210.502263
 20
419.625952
 30
0.0
 0
VERTEX
 8
0
 10
210.397267
 20
419.405951
 30
0.0
 0
VERTEX
 8
0
 10
210.252263
 20
419.215949
 30
0.0
 0
VERTEX
 8
0
 10
210.074772
 20
419.055976
 30
0.0
 0
VERTEX
 8
0
 10
209.859761
 20
418.935950
 30
0.0
 0
VERTEX
 8
0
 10
209.617268
 20
418.860968
 30
0.0
 0
VERTEX
 8
0
 10
209.344761
 20
418.833472
 30
0.0
 0
VERTEX
 8
0
 10
209.087269
 20
418.860968
 30
0.0
 0
VERTEX
 8
0
 10
208.854771
 20
418.935950
 30
0.0
 0
VERTEX
 8
0
 10
208.647267
 20
419.055976
 30
0.0
 0
VERTEX
 8
0
 10
208.467259
 20
419.215949
 30
0.0
 0
VERTEX
 8
0
 10
208.324772
 20
419.405951
 30
0.0
 0
VERTEX
 8
0
 10
208.214772
 20
419.625952
 30
0.0
 0
VERTEX
 8
0
 10
208.147267
 20
419.868476
 30
0.0
 0
SEQEND
 8
0
 0
POLYLINE
 8
0
 62
7
 66
 1
 10
0.0
 20
0.0
 30
0.0
 70
1
 0
VERTEX
 8
0
 10
207.592259
 20
417.638465
 30
0.0
 0
VERTEX
 8
0
 10
207.592259
 20
407.478461
 30
0.0
 0
VERTEX
 8
0
 10
207.612263
 20
406.788459
 30
0.0
 0
VERTEX
 8
0
 10
207.669758
 20
406.150977
 30
0.0
 0
VERTEX
 8
0
 10
207.764760
 20
405.560950
 30
0.0
 0
VERTEX
 8
0
 10
207.894765
 20
405.020972
 30
0.0
 0
VERTEX
 8
0
 10
208.057271
 20
404.528449
 30
0.0
 0
VERTEX
 8
0
 10
208.252263
 20
404.083472
 30
0.0
 0
VERTEX
 8
0
 10
208.477269
 20
403.685950
 30
0.0
 0
VERTEX
 8
0
 10
208.729771
 20
403.333472
 30
0.0
 0
VERTEX
 8
0
 10
209.009770
 20
403.023474
 30
0.0
 0
VERTEX
 8
0
 10
209.314763
 20
402.758460
 30
0.0
 0
VERTEX
 8
0
 10
209.642262
 20
402.535956
 30
0.0
 0
VERTEX
 8
0
 10
209.992268
 20
402.355963
 30
0.0
 0
VERTEX
 8
0
 10
210.362263
 20
402.218451
 30
0.0
 0
VERTEX
 8
0
 10
210.752263
 20
402.120978
 30
0.0
 0
VERTEX
 8
0
 10
211.157261
 20
402.063452
 30
0.0
 0
VERTEX
 8
0
 10
211.579762
 20
402.043463
 30
0.0
 0
VERTEX
 8
0
 10
212.042271
 20
402.063452
 30
0.0
 0
VERTEX
 8
0
 10
212.479771
 20
402.123450
 30
0.0
 0
VERTEX
 8
0
 10
212.897267
 20
402.223456
 30
0.0
 0
VERTEX
 8
0
 10
213.292271
 20
402.363471
 30
0.0
 0
VERTEX
 8
0
 10
213.659764
 20
402.545966
 30
0.0
 0
VERTEX
 8
0
 10
214.004765
 20
402.770972
 30
0.0
 0
VERTEX
 8
0
 10
214.319768
 20
403.038459
 30
0.0
 0
VERTEX
 8
0
 10
214.607258
 20
403.350959
 30
0.0
 0
VERTEX
 8
0
 10
214.864766
 20
403.705970
 30
0.0
 0
VERTEX
 8
0
 10
215.092259
 20
404.105963
 30
0.0
 0
VERTEX
 8
0
 10
215.287266
 20
404.550971
 30
0.0
 0
VERTEX
 8
0
 10
215.449772
 20
405.043463
 30
0.0
 0
VERTEX
 8
0
 10
215.577260
 20
405.580970
 30
0.0
 0
VERTEX
 8
0
 10
215.672261
 20
406.165961
 30
0.0
 0
VERTEX
 8
0
 10
215.727269
 20
406.798468
 30
0.0
 0
VERTEX
 8
0
 10
215.747258
 20
407.478461
 30
0.0
 0
VERTEX
 8
0
 10
215.747258
 20
417.638465
 30
0.0
 0
VERTEX
 8
0
 10
217.982258
 20
417.638465
 30
0.0
 0
VERTEX
 8
0
 10
217.982258
 20
407.630957
 30
0.0
 0
VERTEX
 8
0
 10
217.974766
 20
407.145972
 30
0.0
 0
VERTEX
 8
0
 10
217.949772
 20
406.680976
 30
0.0
 0
VERTEX
 8
0
 10
217.909764
 20
406.233466
 30
0.0
 0
VERTEX
 8
0
 10
217.854771
 20
405.803473
 30
0.0
 0
VERTEX
 8
0
 10
217.787266
 20
405.390967
 30
0.0
 0
VERTEX
 8
0
 10
217.702260
 20
404.995978
 30
0.0
 0
VERTEX
 8
0
 10
217.604771
 20
404.618476
 30
0.0
 0
VERTEX
 8
0
 10
217.492268
 20
404.258460
 30
0.0
 0
VERTEX
 8
0
 10
217.364766
 20
403.913459
 30
0.0
 0
VERTEX
 8
0
 10
217.227269
 20
403.585974
 30
0.0
 0
VERTEX
 8
0
 10
217.074772
 20
403.275977
 30
0.0
 0
VERTEX
 8
0
 10
216.909764
 20
402.980963
 30
0.0
 0
VERTEX
 8
0
 10
216.734761
 20
402.703467
 30
0.0
 0
VERTEX
 8
0
 10
216.544758
 20
402.440955
 30
0.0
 0
VERTEX
 8
0
 10
216.344761
 20
402.193457
 30
0.0
 0
VERTEX
 8
0
 10
216.134770
 20
401.963477
 30
0.0
 0
VERTEX
 8
0
 10
215.912266
 20
401.748450
 30
0.0
 0
VERTEX
 8
0
 10
215.679768
 20
401.545966
 30
0.0
 0
VERTEX
 8
0
 10
215.437260
 20
401.360968
 30
0.0
 0
VERTEX
 8
0
 10
215.184758
 20
401.190955
 30
0.0
 0
VERTEX
 8
0
 10
214.649769
 20
400.893470
 30
0.0
 0
VERTEX
 8
0
 10
214.082265
 20
400.653449
 30
0.0
 0
VERTEX
 8
0
 10
213.479771
 20
400.470954
 30
0.0
 0
VERTEX
 8
0
 10
212.847264
 20
400.340949
 30
0.0
 0
VERTEX
 8
0
 10
212.189763
 20
400.263465
 30
0.0
 0
VERTEX
 8
0
 10
211.504765
 20
400.238471
 30
0.0
 0
VERTEX
 8
0
 10
210.857258
 20
400.260962
 30
0.0
 0
VERTEX
 8
0
 10
210.234761
 20
400.333472
 30
0.0
 0
VERTEX
 8
0
 10
209.634770
 20
400.455970
 30
0.0
 0
VERTEX
 8
0
 10
209.064763
 20
400.630957
 30
0.0
 0
VERTEX
 8
0
 10
208.524769
 20
400.860968
 30
0.0
 0
VERTEX
 8
0
 10
208.019765
 20
401.145972
 30
0.0
 0
VERTEX
 8
0
 10
207.779759
 20
401.310950
 30
0.0
 0
VERTEX
 8
0
 10
207.549763
 20
401.490973
 30
0.0
 0
VERTEX
 8
0
 10
207.327260
 20
401.685950
 30
0.0
 0
VERTEX
 8
0
 10
207.117268
 20
401.895972
 30
0.0
 0
VERTEX
 8
0
 10
206.914769
 20
402.123450
 30
0.0
 0
VERTEX
 8
0
 10
206.724766
 20
402.363471
 30
0.0
 0
VERTEX
 8
0
 10
206.547261
 20
402.620978
 30
0.0
 0
VERTEX
 8
0
 10
206.377263
 20
402.895972
 30
0.0
 0
VERTEX
 8
0
 10
206.222264
 20
403.185950
 30
0.0
 0
VERTEX
 8
0
 10
206.077260
 20
403.495978
 30
0.0
 0
VERTEX
 8
0
 10
205.944768
 20
403.818457
 30
0.0
 0
VERTEX
 8
0
 10
205.824772
 20
404.160956
 30
0.0
 0
VERTEX
 8
0
 10
205.717259
 20
404.520972
 30
0.0
 0
VERTEX
 8
0
 10
205.624760
 20
404.898474
 30
0.0
 0
VERTEX
 8
0
 10
205.544758
 20
405.295966
 30
0.0
 0
VERTEX
 8
0
 10
205.477269
 20
405.710974
 30
0.0
 0
VERTEX
 8
0
 10
205.424763
 20
406.143470
 30
0.0
 0
VERTEX
 8
0
 10
205.387272
 20
406.593451
 30
0.0
 0
VERTEX
 8
0
 10
205.364766
 20
407.065955
 30
0.0
 0
VERTEX
 8
0
 10
205.357258
 20
407.555976
 30
0.0
 0
VERTEX
 8
0
 10
205.357258
 20
417.638465
 30
0.0
 0
SEQEND
 8
0
 0
POLYLINE
 8
0
 62
7
 66
 1
 10
0.0
 20
0.0
 30
0.0
 70
1
 0
VERTEX
 8
0
 10
175.252263
 20
417.263465
 30
0.0
 0
VERTEX
 8
0
 10
184.472264
 20
417.263465
 30
0.0
 0
VERTEX
 8
0
 10
184.472264
 20
415.408454
 30
0.0
 0
VERTEX
 8
0
 10
177.487263
 20
415.408454
 30
0.0
 0
VERTEX
 8
0
 10
177.487263
 20
409.718451
 30
0.0
 0
VERTEX
 8
0
 10
183.939763
 20
409.718451
 30
0.0
 0
VERTEX
 8
0
 10
183.939763
 20
407.888465
 30
0.0
 0
VERTEX
 8
0
 10
177.487263
 20
407.888465
 30
0.0
 0
VERTEX
 8
0
 10
177.487263
 20
400.140967
 30
0.0
 0
VERTEX
 8
0
 10
175.252263
 20
400.140967
 30
0.0
 0
SEQEND
 8
0
 0
POLYLINE
 8
0
 62
7
 66
 1
 10
0.0
 20
0.0
 30
0.0
 70
1
 0
VERTEX
 8
0
 10
115.117268
 20
415.383460
 30
0.0
 0
VERTEX
 8
0
 10
109.909764
 20
415.383460
 30
0.0
 0
VERTEX
 8
0
 10
109.909764
 20
417.263465
 30
0.0
 0
VERTEX
 8
0
 10
122.584767
 20
417.263465
 30
0.0
 0
VERTEX
 8
0
 10
122.584767
 20
415.383460
 30
0.0
 0
VERTEX
 8
0
 10
117.352269
 20
415.383460
 30
0.0
 0
VERTEX
 8
0
 10
117.352269
 20
400.140967
 30
0.0
 0
VERTEX
 8
0
 10
115.117268
 20
400.140967
 30
0.0
 0
SEQEND
 8
0
 0
POLYLINE
 8
0
 62
7
 66
 1
 10
0.0
 20
0.0
 30
0.0
 70
1
 0
VERTEX
 8
0
 10
79.854771
 20
402.833472
 30
0.0
 0
VERTEX
 8
0
 10
80.247288
 20
402.603461
 30
0.0
 0
VERTEX
 8
0
 10
80.674779
 20
402.390967
 30
0.0
 0
VERTEX
 8
0
 10
81.134770
 20
402.200965
 30
0.0
 0
VERTEX
 8
0
 10
81.624791
 20
402.035956
 30
0.0
 0
VERTEX
 8
0
 10
82.137272
 20
401.900977
 30
0.0
 0
VERTEX
 8
0
 10
82.672276
 20
401.800971
 30
0.0
 0
VERTEX
 8
0
 10
83.224766
 20
401.738471
 30
0.0
 0
VERTEX
 8
0
 10
83.792271
 20
401.715949
 30
0.0
 0
VERTEX
 8
0
 10
84.204777
 20
401.730963
 30
0.0
 0
VERTEX
 8
0
 10
84.594761
 20
401.770972
 30
0.0
 0
VERTEX
 8
0
 10
84.962285
 20
401.838477
 30
0.0
 0
VERTEX
 8
0
 10
85.307286
 20
401.928473
 30
0.0
 0
VERTEX
 8
0
 10
85.624791
 20
402.045966
 30
0.0
 0
VERTEX
 8
0
 10
85.919774
 20
402.185950
 30
0.0
 0
VERTEX
 8
0
 10
86.189763
 20
402.345954
 30
0.0
 0
VERTEX
 8
0
 10
86.432286
 20
402.528449
 30
0.0
 0
VERTEX
 8
0
 10
86.647282
 20
402.733466
 30
0.0
 0
VERTEX
 8
0
 10
86.837285
 20
402.953467
 30
0.0
 0
VERTEX
 8
0
 10
86.999791
 20
403.195960
 30
0.0
 0
VERTEX
 8
0
 10
87.132268
 20
403.453467
 30
0.0
 0
VERTEX
 8
0
 10
87.237279
 20
403.728461
 30
0.0
 0
VERTEX
 8
0
 10
87.314763
 20
404.015967
 30
0.0
 0
VERTEX
 8
0
 10
87.359776
 20
404.320960
 30
0.0
 0
VERTEX
 8
0
 10
87.374791
 20
404.638465
 30
0.0
 0
VERTEX
 8
0
 10
87.364781
 20
404.925971
 30
0.0
 0
VERTEX
 8
0
 10
87.329777
 20
405.200965
 30
0.0
 0
VERTEX
 8
0
 10
87.274785
 20
405.460974
 30
0.0
 0
VERTEX
 8
0
 10
87.194768
 20
405.708472
 30
0.0
 0
VERTEX
 8
0
 10
87.092290
 20
405.945960
 30
0.0
 0
VERTEX
 8
0
 10
86.962285
 20
406.170966
 30
0.0
 0
VERTEX
 8
0
 10
86.809788
 20
406.388465
 30
0.0
 0
VERTEX
 8
0
 10
86.627263
 20
406.593451
 30
0.0
 0
VERTEX
 8
0
 10
86.419774
 20
406.793463
 30
0.0
 0
VERTEX
 8
0
 10
86.184788
 20
406.983466
 30
0.0
 0
VERTEX
 8
0
 10
85.919774
 20
407.168463
 30
0.0
 0
VERTEX
 8
0
 10
85.627263
 20
407.345954
 30
0.0
 0
VERTEX
 8
0
 10
85.304783
 20
407.518470
 30
0.0
 0
VERTEX
 8
0
 10
84.949772
 20
407.688452
 30
0.0
 0
VERTEX
 8
0
 10
84.564763
 20
407.853461
 30
0.0
 0
VERTEX
 8
0
 10
84.147282
 20
408.015967
 30
0.0
 0
VERTEX
 8
0
 10
83.637272
 20
408.210974
 30
0.0
 0
VERTEX
 8
0
 10
83.152287
 20
408.420966
 30
0.0
 0
VERTEX
 8
0
 10
82.692265
 20
408.638465
 30
0.0
 0
VERTEX
 8
0
 10
82.262272
 20
408.870978
 30
0.0
 0
VERTEX
 8
0
 10
81.862279
 20
409.115973
 30
0.0
 0
VERTEX
 8
0
 10
81.489781
 20
409.375952
 30
0.0
 0
VERTEX
 8
0
 10
81.149785
 20
409.650977
 30
0.0
 0
VERTEX
 8
0
 10
80.839787
 20
409.940955
 30
0.0
 0
VERTEX
 8
0
 10
80.564763
 20
410.245978
 30
0.0
 0
VERTEX
 8
0
 10
80.322270
 20
410.568457
 30
0.0
 0
VERTEX
 8
0
 10
80.112279
 20
410.908454
 30
0.0
 0
VERTEX
 8
0
 10
79.939763
 20
411.268470
 30
0.0
 0
VERTEX
 8
0
 10
79.804783
 20
411.643470
 30
0.0
 0
VERTEX
 8
0
 10
79.707280
 20
412.040961
 30
0.0
 0
VERTEX
 8
0
 10
79.647282
 20
412.455970
 30
0.0
 0
VERTEX
 8
0
 10
79.627263
 20
412.893470
 30
0.0
 0
VERTEX
 8
0
 10
79.652287
 20
413.385962
 30
0.0
 0
VERTEX
 8
0
 10
79.729771
 20
413.858466
 30
0.0
 0
VERTEX
 8
0
 10
79.852269
 20
414.313452
 30
0.0
 0
VERTEX
 8
0
 10
80.024785
 20
414.745978
 30
0.0
 0
VERTEX
 8
0
 10
80.242283
 20
415.153449
 30
0.0
 0
VERTEX
 8
0
 10
80.502263
 20
415.535956
 30
0.0
 0
VERTEX
 8
0
 10
80.804783
 20
415.893470
 30
0.0
 0
VERTEX
 8
0
 10
81.147282
 20
416.218451
 30
0.0
 0
VERTEX
 8
0
 10
81.529790
 20
416.513465
 30
0.0
 0
VERTEX
 8
0
 10
81.949772
 20
416.775977
 30
0.0
 0
VERTEX
 8
0
 10
82.404790
 20
417.003455
 30
0.0
 0
VERTEX
 8
0
 10
82.894780
 20
417.190955
 30
0.0
 0
VERTEX
 8
0
 10
83.417271
 20
417.343451
 30
0.0
 0
VERTEX
 8
0
 10
83.972264
 20
417.453467
 30
0.0
 0
VERTEX
 8
0
 10
84.554783
 20
417.520972
 30
0.0
 0
VERTEX
 8
0
 10
85.164769
 20
417.543463
 30
0.0
 0
VERTEX
 8
0
 10
85.792271
 20
417.525977
 30
0.0
 0
VERTEX
 8
0
 10
86.377263
 20
417.473456
 30
0.0
 0
VERTEX
 8
0
 10
86.919774
 20
417.390967
 30
0.0
 0
VERTEX
 8
0
 10
87.414769
 20
417.285956
 30
0.0
 0
VERTEX
 8
0
 10
87.867283
 20
417.158454
 30
0.0
 0
VERTEX
 8
0
 10
88.269780
 20
417.015967
 30
0.0
 0
VERTEX
 8
0
 10
88.622288
 20
416.863471
 30
0.0
 0
VERTEX
 8
0
 10
88.924779
 20
416.703467
 30
0.0
 0
VERTEX
 8
0
 10
88.314763
 20
414.900977
 30
0.0
 0
VERTEX
 8
0
 10
88.087285
 20
415.030951
 30
0.0
 0
VERTEX
 8
0
 10
87.802281
 20
415.165961
 30
0.0
 0
VERTEX
 8
0
 10
87.467290
 20
415.303473
 30
0.0
 0
VERTEX
 8
0
 10
87.082280
 20
415.430976
 30
0.0
 0
VERTEX
 8
0
 10
86.649785
 20
415.543463
 30
0.0
 0
VERTEX
 8
0
 10
86.169774
 20
415.633460
 30
0.0
 0
VERTEX
 8
0
 10
85.649785
 20
415.690955
 30
0.0
 0
VERTEX
 8
0
 10
85.087285
 20
415.713477
 30
0.0
 0
VERTEX
 8
0
 10
84.667271
 20
415.698462
 30
0.0
 0
VERTEX
 8
0
 10
84.277287
 20
415.650977
 30
0.0
 0
VERTEX
 8
0
 10
83.922276
 20
415.575965
 30
0.0
 0
VERTEX
 8
0
 10
83.597264
 20
415.475959
 30
0.0
 0
VERTEX
 8
0
 10
83.304783
 20
415.353461
 30
0.0
 0
VERTEX
 8
0
 10
83.039769
 20
415.210974
 30
0.0
 0
VERTEX
 8
0
 10
82.804783
 20
415.048468
 30
0.0
 0
VERTEX
 8
0
 10
82.599766
 20
414.868476
 30
0.0
 0
VERTEX
 8
0
 10
82.419774
 20
414.675971
 30
0.0
 0
VERTEX
 8
0
 10
82.267277
 20
414.473456
 30
0.0
 0
VERTEX
 8
0
 10
82.139775
 20
414.260962
 30
0.0
 0
VERTEX
 8
0
 10
82.037266
 20
414.040961
 30
0.0
 0
VERTEX
 8
0
 10
81.959782
 20
413.818457
 30
0.0
 0
VERTEX
 8
0
 10
81.904790
 20
413.593451
 30
0.0
 0
VERTEX
 8
0
 10
81.872288
 20
413.368476
 30
0.0
 0
VERTEX
 8
0
 10
81.862279
 20
413.148474
 30
0.0
 0
VERTEX
 8
0
 10
81.874791
 20
412.858466
 30
0.0
 0
VERTEX
 8
0
 10
81.912266
 20
412.583472
 30
0.0
 0
VERTEX
 8
0
 10
81.974766
 20
412.325965
 30
0.0
 0
VERTEX
 8
0
 10
82.062291
 20
412.085974
 30
0.0
 0
VERTEX
 8
0
 10
82.177281
 20
411.855963
 30
0.0
 0
VERTEX
 8
0
 10
82.317265
 20
411.640967
 30
0.0
 0
VERTEX
 8
0
 10
82.484776
 20
411.435950
 30
0.0
 0
VERTEX
 8
0
 10
82.679783
 20
411.238471
 30
0.0
 0
VERTEX
 8
0
 10
82.902287
 20
411.050971
 30
0.0
 0
VERTEX
 8
0
 10
83.152287
 20
410.870978
 30
0.0
 0
VERTEX
 8
0
 10
83.429783
 20
410.693457
 30
0.0
 0
VERTEX
 8
0
 10
83.739781
 20
410.523474
 30
0.0
 0
VERTEX
 8
0
 10
84.074772
 20
410.353461
 30
0.0
 0
VERTEX
 8
0
 10
84.442265
 20
410.185950
 30
0.0
 0
VERTEX
 8
0
 10
84.839787
 20
410.015967
 30
0.0
 0
VERTEX
 8
0
 10
85.267277
 20
409.845954
 30
0.0
 0
VERTEX
 8
0
 10
85.792271
 20
409.633460
 30
0.0
 0
VERTEX
 8
0
 10
86.284764
 20
409.410956
 30
0.0
 0
VERTEX
 8
0
 10
86.742283
 20
409.183478
 30
0.0
 0
VERTEX
 8
0
 10
87.167271
 20
408.943457
 30
0.0
 0
VERTEX
 8
0
 10
87.557286
 20
408.690955
 30
0.0
 0
VERTEX
 8
0
 10
87.912266
 20
408.425971
 30
0.0
 0
VERTEX
 8
0
 10
88.234776
 20
408.148474
 30
0.0
 0
VERTEX
 8
0
 10
88.524785
 20
407.855963
 30
0.0
 0
VERTEX
 8
0
 10
88.779790
 20
407.545966
 30
0.0
 0
VERTEX
 8
0
 10
88.999791
 20
407.218451
 30
0.0
 0
VERTEX
 8
0
 10
89.184788
 20
406.870978
 30
0.0
 0
VERTEX
 8
0
 10
89.337285
 20
406.505957
 30
0.0
 0
VERTEX
 8
0
 10
89.457280
 20
406.118476
 30
0.0
 0
VERTEX
 8
0
 10
89.542271
 20
405.708472
 30
0.0
 0
VERTEX
 8
0
 10
89.592290
 20
405.273474
 30
0.0
 0
VERTEX
 8
0
 10
89.609776
 20
404.815955
 30
0.0
 0
VERTEX
 8
0
 10
89.587285
 20
404.325965
 30
0.0
 0
VERTEX
 8
0
 10
89.519780
 20
403.843451
 30
0.0
 0
VERTEX
 8
0
 10
89.404790
 20
403.378455
 30
0.0
 0
VERTEX
 8
0
 10
89.244786
 20
402.928473
 30
0.0
 0
VERTEX
 8
0
 10
89.039769
 20
402.495978
 30
0.0
 0
VERTEX
 8
0
 10
88.787266
 20
402.088477
 30
0.0
 0
VERTEX
 8
0
 10
88.487279
 20
401.703467
 30
0.0
 0
VERTEX
 8
0
 10
88.139775
 20
401.348456
 30
0.0
 0
VERTEX
 8
0
 10
87.744786
 20
401.023474
 30
0.0
 0
VERTEX
 8
0
 10
87.304783
 20
400.733466
 30
0.0
 0
VERTEX
 8
0
 10
86.814763
 20
400.480963
 30
0.0
 0
VERTEX
 8
0
 10
86.277287
 20
400.265967
 30
0.0
 0
VERTEX
 8
0
 10
85.689763
 20
400.093451
 30
0.0
 0
VERTEX
 8
0
 10
85.057286
 20
399.968451
 30
0.0
 0
VERTEX
 8
0
 10
84.372288
 20
399.890967
 30
0.0
 0
VERTEX
 8
0
 10
83.639775
 20
399.863471
 30
0.0
 0
VERTEX
 8
0
 10
83.014775
 20
399.885962
 30
0.0
 0
VERTEX
 8
0
 10
82.389775
 20
399.953467
 30
0.0
 0
VERTEX
 8
0
 10
81.772282
 20
400.055976
 30
0.0
 0
VERTEX
 8
0
 10
81.179783
 20
400.193457
 30
0.0
 0
VERTEX
 8
0
 10
80.619786
 20
400.358466
 30
0.0
 0
VERTEX
 8
0
 10
80.107274
 20
400.548468
 30
0.0
 0
VERTEX
 8
0
 10
79.872288
 20
400.650977
 30
0.0
 0
VERTEX
 8
0
 10
79.654790
 20
400.758460
 30
0.0
 0
VERTEX
 8
0
 10
79.454777
 20
400.868476
 30
0.0
 0
VERTEX
 8
0
 10
79.272282
 20
400.980963
 30
0.0
 0
SEQEND
 8
0
 0
POLYLINE
 8
0
 62
7
 66
 1
 10
0.0
 20
0.0
 30
0.0
 70
1
 0
VERTEX
 8
0
 10
53.752263
 20
400.140967
 30
0.0
 0
VERTEX
 8
0
 10
51.514775
 20
400.140967
 30
0.0
 0
VERTEX
 8
0
 10
51.514775
 20
417.263465
 30
0.0
 0
VERTEX
 8
0
 10
53.752263
 20
417.263465
 30
0.0
 0
SEQEND
 8
0
 0
POLYLINE
 8
0
 62
7
 66
 1
 10
0.0
 20
0.0
 30
0.0
 70
1
 0
VERTEX
 8
0
 10
14.779790
 20
417.263465
 30
0.0
 0
VERTEX
 8
0
 10
16.989781
 20
417.263465
 30
0.0
 0
VERTEX
 8
0
 10
16.989781
 20
409.005957
 30
0.0
 0
VERTEX
 8
0
 10
17.067265
 20
409.005957
 30
0.0
 0
VERTEX
 8
0
 10
17.409764
 20
409.493476
 30
0.0
 0
VERTEX
 8
0
 10
17.749791
 20
409.958472
 30
0.0
 0
VERTEX
 8
0
 10
18.084782
 20
410.405951
 30
0.0
 0
VERTEX
 8
0
 10
18.412266
 20
410.835974
 30
0.0
 0
VERTEX
 8
0
 10
23.644780
 20
417.263465
 30
0.0
 0
VERTEX
 8
0
 10
26.389775
 20
417.263465
 30
0.0
 0
VERTEX
 8
0
 10
20.189763
 20
409.998450
 30
0.0
 0
VERTEX
 8
0
 10
26.872288
 20
400.140967
 30
0.0
 0
VERTEX
 8
0
 10
24.254765
 20
400.140967
 30
0.0
 0
VERTEX
 8
0
 10
18.642277
 20
408.550971
 30
0.0
 0
VERTEX
 8
0
 10
16.989781
 20
406.670966
 30
0.0
 0
VERTEX
 8
0
 10
16.989781
 20
400.140967
 30
0.0
 0
VERTEX
 8
0
 10
14.779790
 20
400.140967
 30
0.0
 0
SEQEND
 8
0
 0
POLYLINE
 8
0
 62
7
 66
 1
 10
0.0
 20
0.0
 30
0.0
 70
1
 0
VERTEX
 8
0
 10
-15.567714
 20
402.833472
 30
0.0
 0
VERTEX
 8
0
 10
-15.175228
 20
402.603461
 30
0.0
 0
VERTEX
 8
0
 10
-14.747737
 20
402.390967
 30
0.0
 0
VERTEX
 8
0
 10
-14.287715
 20
402.200965
 30
0.0
 0
VERTEX
 8
0
 10
-13.797725
 20
402.035956
 30
0.0
 0
VERTEX
 8
0
 10
-13.282710
 20
401.900977
 30
0.0
 0
VERTEX
 8
0
 10
-12.747737
 20
401.800971
 30
0.0
 0
VERTEX
 8
0
 10
-12.195217
 20
401.738471
 30
0.0
 0
VERTEX
 8
0
 10
-11.627712
 20
401.715949
 30
0.0
 0
VERTEX
 8
0
 10
-11.215236
 20
401.730963
 30
0.0
 0
VERTEX
 8
0
 10
-10.825221
 20
401.770972
 30
0.0
 0
VERTEX
 8
0
 10
-10.457729
 20
401.838477
 30
0.0
 0
VERTEX
 8
0
 10
-10.115230
 20
401.928473
 30
0.0
 0
VERTEX
 8
0
 10
-9.795223
 20
402.045966
 30
0.0
 0
VERTEX
 8
0
 10
-9.502712
 20
402.185950
 30
0.0
 0
VERTEX
 8
0
 10
-9.232723
 20
402.345954
 30
0.0
 0
VERTEX
 8
0
 10
-8.990230
 20
402.528449
 30
0.0
 0
VERTEX
 8
0
 10
-8.772731
 20
402.733466
 30
0.0
 0
VERTEX
 8
0
 10
-8.585231
 20
402.953467
 30
0.0
 0
VERTEX
 8
0
 10
-8.422725
 20
403.195960
 30
0.0
 0
VERTEX
 8
0
 10
-8.290218
 20
403.453467
 30
0.0
 0
VERTEX
 8
0
 10
-8.185237
 20
403.728461
 30
0.0
 0
VERTEX
 8
0
 10
-8.107723
 20
404.015967
 30
0.0
 0
VERTEX
 8
0
 10
-8.062709
 20
404.320960
 30
0.0
 0
VERTEX
 8
0
 10
-8.047725
 20
404.638465
 30
0.0
 0
VERTEX
 8
0
 10
-8.057735
 20
404.925971
 30
0.0
 0
VERTEX
 8
0
 10
-8.092708
 20
405.200965
 30
0.0
 0
VERTEX
 8
0
 10
-8.147731
 20
405.460974
 30
0.0
 0
VERTEX
 8
0
 10
-8.227718
 20
405.708472
 30
0.0
 0
VERTEX
 8
0
 10
-8.330226
 20
405.945960
 30
0.0
 0
VERTEX
 8
0
 10
-8.460231
 20
406.170966
 30
0.0
 0
VERTEX
 8
0
 10
-8.612728
 20
406.388465
 30
0.0
 0
VERTEX
 8
0
 10
-8.795223
 20
406.593451
 30
0.0
 0
VERTEX
 8
0
 10
-9.002712
 20
406.793463
 30
0.0
 0
VERTEX
 8
0
 10
-9.237728
 20
406.983466
 30
0.0
 0
VERTEX
 8
0
 10
-9.500209
 20
407.168463
 30
0.0
 0
VERTEX
 8
0
 10
-9.795223
 20
407.345954
 30
0.0
 0
VERTEX
 8
0
 10
-10.117732
 20
407.518470
 30
0.0
 0
VERTEX
 8
0
 10
-10.470210
 20
407.688452
 30
0.0
 0
VERTEX
 8
0
 10
-10.855220
 20
407.853461
 30
0.0
 0
VERTEX
 8
0
 10
-11.272731
 20
408.015967
 30
0.0
 0
VERTEX
 8
0
 10
-11.785213
 20
408.210974
 30
0.0
 0
VERTEX
 8
0
 10
-12.270229
 20
408.420966
 30
0.0
 0
VERTEX
 8
0
 10
-12.727718
 20
408.638465
 30
0.0
 0
VERTEX
 8
0
 10
-13.157710
 20
408.870978
 30
0.0
 0
VERTEX
 8
0
 10
-13.560237
 20
409.115973
 30
0.0
 0
VERTEX
 8
0
 10
-13.932735
 20
409.375952
 30
0.0
 0
VERTEX
 8
0
 10
-14.272731
 20
409.650977
 30
0.0
 0
VERTEX
 8
0
 10
-14.582729
 20
409.940955
 30
0.0
 0
VERTEX
 8
0
 10
-14.857723
 20
410.245978
 30
0.0
 0
VERTEX
 8
0
 10
-15.100215
 20
410.568457
 30
0.0
 0
VERTEX
 8
0
 10
-15.310237
 20
410.908454
 30
0.0
 0
VERTEX
 8
0
 10
-15.482723
 20
411.268470
 30
0.0
 0
VERTEX
 8
0
 10
-15.617732
 20
411.643470
 30
0.0
 0
VERTEX
 8
0
 10
-15.715236
 20
412.040961
 30
0.0
 0
VERTEX
 8
0
 10
-15.775234
 20
412.455970
 30
0.0
 0
VERTEX
 8
0
 10
-15.795223
 20
412.893470
 30
0.0
 0
VERTEX
 8
0
 10
-15.770229
 20
413.385962
 30
0.0
 0
VERTEX
 8
0
 10
-15.692714
 20
413.858466
 30
0.0
 0
VERTEX
 8
0
 10
-15.570217
 20
414.313452
 30
0.0
 0
VERTEX
 8
0
 10
-15.397731
 20
414.745978
 30
0.0
 0
VERTEX
 8
0
 10
-15.180232
 20
415.153449
 30
0.0
 0
VERTEX
 8
0
 10
-14.920223
 20
415.535956
 30
0.0
 0
VERTEX
 8
0
 10
-14.617732
 20
415.893470
 30
0.0
 0
VERTEX
 8
0
 10
-14.275234
 20
416.218451
 30
0.0
 0
VERTEX
 8
0
 10
-13.892726
 20
416.513465
 30
0.0
 0
VERTEX
 8
0
 10
-13.472713
 20
416.775977
 30
0.0
 0
VERTEX
 8
0
 10
-13.017726
 20
417.003455
 30
0.0
 0
VERTEX
 8
0
 10
-12.527736
 20
417.190955
 30
0.0
 0
VERTEX
 8
0
 10
-12.005214
 20
417.343451
 30
0.0
 0
VERTEX
 8
0
 10
-11.450221
 20
417.453467
 30
0.0
 0
VERTEX
 8
0
 10
-10.867732
 20
417.520972
 30
0.0
 0
VERTEX
 8
0
 10
-10.257717
 20
417.543463
 30
0.0
 0
VERTEX
 8
0
 10
-9.630214
 20
417.525977
 30
0.0
 0
VERTEX
 8
0
 10
-9.045223
 20
417.473456
 30
0.0
 0
VERTEX
 8
0
 10
-8.502712
 20
417.390967
 30
0.0
 0
VERTEX
 8
0
 10
-8.007717
 20
417.285956
 30
0.0
 0
VERTEX
 8
0
 10
-7.555232
 20
417.158454
 30
0.0
 0
VERTEX
 8
0
 10
-7.152736
 20
417.015967
 30
0.0
 0
VERTEX
 8
0
 10
-6.800228
 20
416.863471
 30
0.0
 0
VERTEX
 8
0
 10
-6.497737
 20
416.703467
 30
0.0
 0
VERTEX
 8
0
 10
-7.107723
 20
414.900977
 30
0.0
 0
VERTEX
 8
0
 10
-7.335231
 20
415.030951
 30
0.0
 0
VERTEX
 8
0
 10
-7.617732
 20
415.165961
 30
0.0
 0
VERTEX
 8
0
 10
-7.952724
 20
415.303473
 30
0.0
 0
VERTEX
 8
0
 10
-8.337734
 20
415.430976
 30
0.0
 0
VERTEX
 8
0
 10
-8.772731
 20
415.543463
 30
0.0
 0
VERTEX
 8
0
 10
-9.250209
 20
415.633460
 30
0.0
 0
VERTEX
 8
0
 10
-9.770229
 20
415.690955
 30
0.0
 0
VERTEX
 8
0
 10
-10.332729
 20
415.713477
 30
0.0
 0
VERTEX
 8
0
 10
-10.755214
 20
415.698462
 30
0.0
 0
VERTEX
 8
0
 10
-11.142726
 20
415.650977
 30
0.0
 0
VERTEX
 8
0
 10
-11.497737
 20
415.575965
 30
0.0
 0
VERTEX
 8
0
 10
-11.822719
 20
415.475959
 30
0.0
 0
VERTEX
 8
0
 10
-12.117732
 20
415.353461
 30
0.0
 0
VERTEX
 8
0
 10
-12.380214
 20
415.210974
 30
0.0
 0
VERTEX
 8
0
 10
-12.615230
 20
415.048468
 30
0.0
 0
VERTEX
 8
0
 10
-12.822719
 20
414.868476
 30
0.0
 0
VERTEX
 8
0
 10
-13.002712
 20
414.675971
 30
0.0
 0
VERTEX
 8
0
 10
-13.155208
 20
414.473456
 30
0.0
 0
VERTEX
 8
0
 10
-13.282710
 20
414.260962
 30
0.0
 0
VERTEX
 8
0
 10
-13.385219
 20
414.040961
 30
0.0
 0
VERTEX
 8
0
 10
-13.462734
 20
413.818457
 30
0.0
 0
VERTEX
 8
0
 10
-13.517726
 20
413.593451
 30
0.0
 0
VERTEX
 8
0
 10
-13.550228
 20
413.368476
 30
0.0
 0
VERTEX
 8
0
 10
-13.560237
 20
413.148474
 30
0.0
 0
VERTEX
 8
0
 10
-13.547725
 20
412.858466
 30
0.0
 0
VERTEX
 8
0
 10
-13.510219
 20
412.583472
 30
0.0
 0
VERTEX
 8
0
 10
-13.447719
 20
412.325965
 30
0.0
 0
VERTEX
 8
0
 10
-13.360225
 20
412.085974
 30
0.0
 0
VERTEX
 8
0
 10
-13.245235
 20
411.855963
 30
0.0
 0
VERTEX
 8
0
 10
-13.105220
 20
411.640967
 30
0.0
 0
VERTEX
 8
0
 10
-12.937709
 20
411.435950
 30
0.0
 0
VERTEX
 8
0
 10
-12.742732
 20
411.238471
 30
0.0
 0
VERTEX
 8
0
 10
-12.520229
 20
411.050971
 30
0.0
 0
VERTEX
 8
0
 10
-12.270229
 20
410.870978
 30
0.0
 0
VERTEX
 8
0
 10
-11.992732
 20
410.693457
 30
0.0
 0
VERTEX
 8
0
 10
-11.682735
 20
410.523474
 30
0.0
 0
VERTEX
 8
0
 10
-11.347713
 20
410.353461
 30
0.0
 0
VERTEX
 8
0
 10
-10.980220
 20
410.185950
 30
0.0
 0
VERTEX
 8
0
 10
-10.582729
 20
410.015967
 30
0.0
 0
VERTEX
 8
0
 10
-10.155208
 20
409.845954
 30
0.0
 0
VERTEX
 8
0
 10
-9.630214
 20
409.633460
 30
0.0
 0
VERTEX
 8
0
 10
-9.137721
 20
409.410956
 30
0.0
 0
VERTEX
 8
0
 10
-8.680232
 20
409.183478
 30
0.0
 0
VERTEX
 8
0
 10
-8.255214
 20
408.943457
 30
0.0
 0
VERTEX
 8
0
 10
-7.865230
 20
408.690955
 30
0.0
 0
VERTEX
 8
0
 10
-7.510219
 20
408.425971
 30
0.0
 0
VERTEX
 8
0
 10
-7.187709
 20
408.148474
 30
0.0
 0
VERTEX
 8
0
 10
-6.897731
 20
407.855963
 30
0.0
 0
VERTEX
 8
0
 10
-6.642726
 20
407.545966
 30
0.0
 0
VERTEX
 8
0
 10
-6.422725
 20
407.218451
 30
0.0
 0
VERTEX
 8
0
 10
-6.237728
 20
406.870978
 30
0.0
 0
VERTEX
 8
0
 10
-6.085231
 20
406.505957
 30
0.0
 0
VERTEX
 8
0
 10
-5.965236
 20
406.118476
 30
0.0
 0
VERTEX
 8
0
 10
-5.880214
 20
405.708472
 30
0.0
 0
VERTEX
 8
0
 10
-5.830226
 20
405.273474
 30
0.0
 0
VERTEX
 8
0
 10
-5.812709
 20
404.815955
 30
0.0
 0
VERTEX
 8
0
 10
-5.835231
 20
404.325965
 30
0.0
 0
VERTEX
 8
0
 10
-5.902736
 20
403.843451
 30
0.0
 0
VERTEX
 8
0
 10
-6.017726
 20
403.378455
 30
0.0
 0
VERTEX
 8
0
 10
-6.177730
 20
402.928473
 30
0.0
 0
VERTEX
 8
0
 10
-6.382717
 20
402.495978
 30
0.0
 0
VERTEX
 8
0
 10
-6.635219
 20
402.088477
 30
0.0
 0
VERTEX
 8
0
 10
-6.935237
 20
401.703467
 30
0.0
 0
VERTEX
 8
0
 10
-7.282710
 20
401.348456
 30
0.0
 0
VERTEX
 8
0
 10
-7.675228
 20
401.023474
 30
0.0
 0
VERTEX
 8
0
 10
-8.117732
 20
400.733466
 30
0.0
 0
VERTEX
 8
0
 10
-8.607723
 20
400.480963
 30
0.0
 0
VERTEX
 8
0
 10
-9.145229
 20
400.265967
 30
0.0
 0
VERTEX
 8
0
 10
-9.730220
 20
400.093451
 30
0.0
 0
VERTEX
 8
0
 10
-10.365230
 20
399.968451
 30
0.0
 0
VERTEX
 8
0
 10
-11.047725
 20
399.890967
 30
0.0
 0
VERTEX
 8
0
 10
-11.780208
 20
399.863471
 30
0.0
 0
VERTEX
 8
0
 10
-12.405208
 20
399.885962
 30
0.0
 0
VERTEX
 8
0
 10
-13.032710
 20
399.953467
 30
0.0
 0
VERTEX
 8
0
 10
-13.647731
 20
400.055976
 30
0.0
 0
VERTEX
 8
0
 10
-14.242732
 20
400.193457
 30
0.0
 0
VERTEX
 8
0
 10
-14.800228
 20
400.358466
 30
0.0
 0
VERTEX
 8
0
 10
-15.312709
 20
400.548468
 30
0.0
 0
VERTEX
 8
0
 10
-15.547725
 20
400.650977
 30
0.0
 0
VERTEX
 8
0
 10
-15.767726
 20
400.758460
 30
0.0
 0
VERTEX
 8
0
 10
-15.967708
 20
400.868476
 30
0.0
 0
VERTEX
 8
0
 10
-16.150234
 20
400.980963
 30
0.0
 0
SEQEND
 8
0
 0
POLYLINE
 8
0
 62
7
 66
 1
 10
0.0
 20
0.0
 30
0.0
 70
1
 0
VERTEX
 8
0
 10
-38.722713
 20
408.168463
 30
0.0
 0
VERTEX
 8
0
 10
-45.395229
 20
408.168463
 30
0.0
 0
VERTEX
 8
0
 10
-45.395229
 20
401.995978
 30
0.0
 0
VERTEX
 8
0
 10
-37.930232
 20
401.995978
 30
0.0
 0
VERTEX
 8
0
 10
-37.930232
 20
400.140967
 30
0.0
 0
VERTEX
 8
0
 10
-47.645229
 20
400.140967
 30
0.0
 0
VERTEX
 8
0
 10
-47.645229
 20
417.263465
 30
0.0
 0
VERTEX
 8
0
 10
-38.315212
 20
417.263465
 30
0.0
 0
VERTEX
 8
0
 10
-38.315212
 20
415.408454
 30
0.0
 0
VERTEX
 8
0
 10
-45.395229
 20
415.408454
 30
0.0
 0
VERTEX
 8
0
 10
-45.395229
 20
409.998450
 30
0.0
 0
VERTEX
 8
0
 10
-38.722713
 20
409.998450
 30
0.0
 0
SEQEND
 8
0
 0
POLYLINE
 8
0
 62
7
 66
 1
 10
0.0
 20
0.0
 30
0.0
 70
1
 0
VERTEX
 8
0
 10
366.212254
 20
500.995948
 30
0.0
 0
VERTEX
 8
0
 10
-133.787715
 20
500.995948
 30
0.0
 0
VERTEX
 8
0
 10
-133.787715
 20
0.995988
 30
0.0
 0
VERTEX
 8
0
 10
366.212254
 20
0.995988
 30
0.0
 0
SEQEND
 8
0
 0
POLYLINE
 8
0
 62
7
 66
 1
 10
0.0
 20
0.0
 30
0.0
 0
VERTEX
 8
0
 10
149.191060
 20
407.253455
 30
0.0
 0
VERTEX
 8
0
 10
150.594761
 20
407.253455
 30
0.0
 0
VERTEX
 8
0
 10
148.892262
 20
412.183478
 30
0.0
 0
VERTEX
 8
0
 10
148.629765
 20
413.003455
 30
0.0
 0
VERTEX
 8
0
 10
148.399769
 20
413.793463
 30
0.0
 0
VERTEX
 8
0
 10
148.197270
 20
414.558478
 30
0.0
 0
VERTEX
 8
0
 10
148.004765
 20
415.305976
 30
0.0
 0
VERTEX
 8
0
 10
147.954762
 20
415.305976
 30
0.0
 0
VERTEX
 8
0
 10
147.762272
 20
414.550971
 30
0.0
 0
VERTEX
 8
0
 10
147.559773
 20
413.775977
 30
0.0
 0
VERTEX
 8
0
 10
147.339772
 20
412.990973
 30
0.0
 0
VERTEX
 8
0
 10
147.089772
 20
412.208472
 30
0.0
 0
VERTEX
 8
0
 10
145.412266
 20
407.253455
 30
0.0
 0
VERTEX
 8
0
 10
146.691059
 20
407.253455
 30
0.0
 0
SEQEND
 8
0
 0
POLYLINE
 8
0
 62
7
 66
 1
 10
0.0
 20
0.0
 30
0.0
 0
VERTEX
 8
0
 10
146.692622
 20
405.525977
 30
0.0
 0
VERTEX
 8
0
 10
144.954762
 20
405.525977
 30
0.0
 0
VERTEX
 8
0
 10
143.177266
 20
400.140967
 30
0.0
 0
VERTEX
 8
0
 10
140.892262
 20
400.140967
 30
0.0
 0
VERTEX
 8
0
 10
146.734761
 20
417.263465
 30
0.0
 0
VERTEX
 8
0
 10
149.374760
 20
417.263465
 30
0.0
 0
VERTEX
 8
0
 10
155.217259
 20
400.140967
 30
0.0
 0
VERTEX
 8
0
 10
152.854771
 20
400.140967
 30
0.0
 0
VERTEX
 8
0
 10
151.027272
 20
405.525977
 30
0.0
 0
VERTEX
 8
0
 10
149.192623
 20
405.525977
 30
0.0
 0
SEQEND
 8
0
 0
LINE
 8
0
 62
256
10
 146.691059
20
 407.253455
11
 146.692622
21
 405.525977
 0
LINE
 8
0
 62
256
10
 149.191060
20
 407.253455
11
 149.192623
21
 405.525977
 0
POLYLINE
 8
0
 62
7
 66
 1
 10
0.0
 20
0.0
 30
0.0
 0
VERTEX
 8
0
 10
149.240113
 20
372.228461
 30
0.0
 0
VERTEX
 8
0
 10
150.532261
 20
372.228461
 30
0.0
 0
VERTEX
 8
0
 10
148.829762
 20
377.155951
 30
0.0
 0
VERTEX
 8
0
 10
148.567265
 20
377.975959
 30
0.0
 0
VERTEX
 8
0
 10
148.337269
 20
378.765967
 30
0.0
 0
VERTEX
 8
0
 10
148.134770
 20
379.530951
 30
0.0
 0
VERTEX
 8
0
 10
147.942265
 20
380.280951
 30
0.0
 0
VERTEX
 8
0
 10
147.889760
 20
380.280951
 30
0.0
 0
VERTEX
 8
0
 10
147.697270
 20
379.525977
 30
0.0
 0
VERTEX
 8
0
 10
147.497273
 20
378.750952
 30
0.0
 0
VERTEX
 8
0
 10
147.277272
 20
377.965979
 30
0.0
 0
VERTEX
 8
0
 10
147.027272
 20
377.180976
 30
0.0
 0
VERTEX
 8
0
 10
145.349766
 20
372.228461
 30
0.0
 0
VERTEX
 8
0
 10
146.740112
 20
372.228461
 30
0.0
 0
SEQEND
 8
0
 0
POLYLINE
 8
0
 62
7
 66
 1
 10
0.0
 20
0.0
 30
0.0
 0
VERTEX
 8
0
 10
146.741676
 20
370.500952
 30
0.0
 0
VERTEX
 8
0
 10
144.894765
 20
370.500952
 30
0.0
 0
VERTEX
 8
0
 10
143.114766
 20
365.115973
 30
0.0
 0
VERTEX
 8
0
 10
140.829762
 20
365.115973
 30
0.0
 0
VERTEX
 8
0
 10
146.672261
 20
382.235968
 30
0.0
 0
VERTEX
 8
0
 10
149.314763
 20
382.235968
 30
0.0
 0
VERTEX
 8
0
 10
155.154759
 20
365.115973
 30
0.0
 0
VERTEX
 8
0
 10
152.794774
 20
365.115973
 30
0.0
 0
VERTEX
 8
0
 10
150.964772
 20
370.500952
 30
0.0
 0
VERTEX
 8
0
 10
149.241677
 20
370.500952
 30
0.0
 0
SEQEND
 8
0
 0
LINE
 8
0
 62
256
10
 146.740112
20
 372.228461
11
 146.741676
21
 370.500952
 0
LINE
 8
0
 62
256
10
 149.240113
20
 372.228461
11
 149.241677
21
 370.500952
 0
POLYLINE
 8
0
 62
7
 66
 1
 10
0.0
 20
0.0
 30
0.0
 0
VERTEX
 8
0
 10
-50.140224
 20
340.301348
 30
0.0
 0
VERTEX
 8
0
 10
-50.140224
 20
346.968451
 30
0.0
 0
VERTEX
 8
0
 10
-49.622707
 20
347.050971
 30
0.0
 0
VERTEX
 8
0
 10
-49.082729
 20
347.125952
 30
0.0
 0
VERTEX
 8
0
 10
-48.522731
 20
347.190955
 30
0.0
 0
VERTEX
 8
0
 10
-47.942714
 20
347.245978
 30
0.0
 0
VERTEX
 8
0
 10
-47.342708
 20
347.290961
 30
0.0
 0
VERTEX
 8
0
 10
-46.725215
 20
347.323462
 30
0.0
 0
VERTEX
 8
0
 10
-46.090236
 20
347.343451
 30
0.0
 0
VERTEX
 8
0
 10
-45.440212
 20
347.350959
 30
0.0
 0
VERTEX
 8
0
 10
-44.855220
 20
347.340979
 30
0.0
 0
VERTEX
 8
0
 10
-44.292720
 20
347.315955
 30
0.0
 0
VERTEX
 8
0
 10
-43.750209
 20
347.270972
 30
0.0
 0
VERTEX
 8
0
 10
-43.227718
 20
347.210974
 30
0.0
 0
VERTEX
 8
0
 10
-42.727718
 20
347.133460
 30
0.0
 0
VERTEX
 8
0
 10
-42.245235
 20
347.038459
 30
0.0
 0
VERTEX
 8
0
 10
-41.785213
 20
346.925971
 30
0.0
 0
VERTEX
 8
0
 10
-41.345210
 20
346.798468
 30
0.0
 0
VERTEX
 8
0
 10
-40.922725
 20
346.653479
 30
0.0
 0
VERTEX
 8
0
 10
-40.522731
 20
346.493476
 30
0.0
 0
VERTEX
 8
0
 10
-40.137721
 20
346.318457
 30
0.0
 0
VERTEX
 8
0
 10
-39.775234
 20
346.128455
 30
0.0
 0
VERTEX
 8
0
 10
-39.430232
 20
345.923468
 30
0.0
 0
VERTEX
 8
0
 10
-39.102718
 20
345.700965
 30
0.0
 0
VERTEX
 8
0
 10
-38.795223
 20
345.465979
 30
0.0
 0
VERTEX
 8
0
 10
-38.505214
 20
345.215979
 30
0.0
 0
VERTEX
 8
0
 10
-38.222713
 20
344.945960
 30
0.0
 0
VERTEX
 8
0
 10
-37.955226
 20
344.663459
 30
0.0
 0
VERTEX
 8
0
 10
-37.705226
 20
344.365973
 30
0.0
 0
VERTEX
 8
0
 10
-37.472713
 20
344.055976
 30
0.0
 0
VERTEX
 8
0
 10
-37.255214
 20
343.728461
 30
0.0
 0
VERTEX
 8
0
 10
-37.052730
 20
343.385962
 30
0.0
 0
VERTEX
 8
0
 10
-36.870235
 20
343.030951
 30
0.0
 0
VERTEX
 8
0
 10
-36.705226
 20
342.655951
 30
0.0
 0
VERTEX
 8
0
 10
-36.560207
 20
342.268470
 30
0.0
 0
VERTEX
 8
0
 10
-36.430232
 20
341.863471
 30
0.0
 0
VERTEX
 8
0
 10
-36.320217
 20
341.440955
 30
0.0
 0
VERTEX
 8
0
 10
-36.230220
 20
341.000952
 30
0.0
 0
VERTEX
 8
0
 10
-36.160213
 20
340.543463
 30
0.0
 0
VERTEX
 8
0
 10
-36.110225
 20
340.070960
 30
0.0
 0
VERTEX
 8
0
 10
-36.077724
 20
339.578467
 30
0.0
 0
VERTEX
 8
0
 10
-36.067714
 20
339.068457
 30
0.0
 0
VERTEX
 8
0
 10
-36.077724
 20
338.550971
 30
0.0
 0
VERTEX
 8
0
 10
-36.110225
 20
338.043463
 30
0.0
 0
VERTEX
 8
0
 10
-36.160213
 20
337.550971
 30
0.0
 0
VERTEX
 8
0
 10
-36.230220
 20
337.070960
 30
0.0
 0
VERTEX
 8
0
 10
-36.322719
 20
336.603461
 30
0.0
 0
VERTEX
 8
0
 10
-36.432735
 20
336.150977
 30
0.0
 0
VERTEX
 8
0
 10
-36.560207
 20
335.708472
 30
0.0
 0
VERTEX
 8
0
 10
-36.710231
 20
335.283454
 30
0.0
 0
VERTEX
 8
0
 10
-36.875209
 20
334.870978
 30
0.0
 0
VERTEX
 8
0
 10
-37.060207
 20
334.473456
 30
0.0
 0
VERTEX
 8
0
 10
-37.262721
 20
334.090979
 30
0.0
 0
VERTEX
 8
0
 10
-37.482723
 20
333.725959
 30
0.0
 0
VERTEX
 8
0
 10
-37.720210
 20
333.373450
 30
0.0
 0
VERTEX
 8
0
 10
-37.972713
 20
333.035956
 30
0.0
 0
VERTEX
 8
0
 10
-38.242732
 20
332.715979
 30
0.0
 0
VERTEX
 8
0
 10
-38.530208
 20
332.413459
 30
0.0
 0
VERTEX
 8
0
 10
-38.847713
 20
332.120978
 30
0.0
 0
VERTEX
 8
0
 10
-39.187709
 20
331.848456
 30
0.0
 0
VERTEX
 8
0
 10
-39.550228
 20
331.590979
 30
0.0
 0
VERTEX
 8
0
 10
-39.935207
 20
331.353461
 30
0.0
 0
VERTEX
 8
0
 10
-40.342708
 20
331.133460
 30
0.0
 0
VERTEX
 8
0
 10
-40.772731
 20
330.930976
 30
0.0
 0
VERTEX
 8
0
 10
-41.222713
 20
330.745978
 30
0.0
 0
VERTEX
 8
0
 10
-41.692714
 20
330.580970
 30
0.0
 0
VERTEX
 8
0
 10
-42.180232
 20
330.433478
 30
0.0
 0
VERTEX
 8
0
 10
-42.690212
 20
330.305976
 30
0.0
 0
VERTEX
 8
0
 10
-43.217708
 20
330.198462
 30
0.0
 0
VERTEX
 8
0
 10
-43.765224
 20
330.108466
 30
0.0
 0
VERTEX
 8
0
 10
-44.330226
 20
330.038459
 30
0.0
 0
VERTEX
 8
0
 10
-44.912715
 20
329.988471
 30
0.0
 0
VERTEX
 8
0
 10
-45.512721
 20
329.958472
 30
0.0
 0
VERTEX
 8
0
 10
-46.127712
 20
329.948462
 30
0.0
 0
VERTEX
 8
0
 10
-46.712734
 20
329.950965
 30
0.0
 0
VERTEX
 8
0
 10
-47.272731
 20
329.963477
 30
0.0
 0
VERTEX
 8
0
 10
-47.805232
 20
329.978461
 30
0.0
 0
VERTEX
 8
0
 10
-48.315212
 20
330.003455
 30
0.0
 0
VERTEX
 8
0
 10
-48.800228
 20
330.033454
 30
0.0
 0
VERTEX
 8
0
 10
-49.267726
 20
330.068457
 30
0.0
 0
VERTEX
 8
0
 10
-49.712734
 20
330.108466
 30
0.0
 0
VERTEX
 8
0
 10
-50.140224
 20
330.153479
 30
0.0
 0
VERTEX
 8
0
 10
-50.140224
 20
337.801347
 30
0.0
 0
SEQEND
 8
0
 0
POLYLINE
 8
0
 62
7
 66
 1
 10
0.0
 20
0.0
 30
0.0
 0
VERTEX
 8
0
 10
-47.930232
 20
337.803347
 30
0.0
 0
VERTEX
 8
0
 10
-47.930232
 20
331.828467
 30
0.0
 0
VERTEX
 8
0
 10
-47.707729
 20
331.803473
 30
0.0
 0
VERTEX
 8
0
 10
-47.465236
 20
331.780951
 30
0.0
 0
VERTEX
 8
0
 10
-47.205226
 20
331.763465
 30
0.0
 0
VERTEX
 8
0
 10
-46.925228
 20
331.750952
 30
0.0
 0
VERTEX
 8
0
 10
-46.330226
 20
331.733466
 30
0.0
 0
VERTEX
 8
0
 10
-45.695217
 20
331.728461
 30
0.0
 0
VERTEX
 8
0
 10
-45.255214
 20
331.735968
 30
0.0
 0
VERTEX
 8
0
 10
-44.830226
 20
331.758460
 30
0.0
 0
VERTEX
 8
0
 10
-44.417720
 20
331.798468
 30
0.0
 0
VERTEX
 8
0
 10
-44.017726
 20
331.850959
 30
0.0
 0
VERTEX
 8
0
 10
-43.257717
 20
332.003455
 30
0.0
 0
VERTEX
 8
0
 10
-42.552730
 20
332.213477
 30
0.0
 0
VERTEX
 8
0
 10
-41.900234
 20
332.480963
 30
0.0
 0
VERTEX
 8
0
 10
-41.300228
 20
332.808478
 30
0.0
 0
VERTEX
 8
0
 10
-40.757717
 20
333.188452
 30
0.0
 0
VERTEX
 8
0
 10
-40.267726
 20
333.625952
 30
0.0
 0
VERTEX
 8
0
 10
-39.835231
 20
334.118476
 30
0.0
 0
VERTEX
 8
0
 10
-39.460231
 20
334.663459
 30
0.0
 0
VERTEX
 8
0
 10
-39.140224
 20
335.258460
 30
0.0
 0
VERTEX
 8
0
 10
-38.875209
 20
335.905951
 30
0.0
 0
VERTEX
 8
0
 10
-38.670223
 20
336.605963
 30
0.0
 0
VERTEX
 8
0
 10
-38.522731
 20
337.353461
 30
0.0
 0
VERTEX
 8
0
 10
-38.435207
 20
338.148474
 30
0.0
 0
VERTEX
 8
0
 10
-38.405208
 20
338.993476
 30
0.0
 0
VERTEX
 8
0
 10
-38.427730
 20
339.733466
 30
0.0
 0
VERTEX
 8
0
 10
-38.505214
 20
340.435950
 30
0.0
 0
VERTEX
 8
0
 10
-38.635219
 20
341.100959
 30
0.0
 0
VERTEX
 8
0
 10
-38.820217
 20
341.728461
 30
0.0
 0
VERTEX
 8
0
 10
-39.060207
 20
342.313452
 30
0.0
 0
VERTEX
 8
0
 10
-39.355220
 20
342.855963
 30
0.0
 0
VERTEX
 8
0
 10
-39.705226
 20
343.355963
 30
0.0
 0
VERTEX
 8
0
 10
-40.110225
 20
343.808478
 30
0.0
 0
VERTEX
 8
0
 10
-40.570217
 20
344.213477
 30
0.0
 0
VERTEX
 8
0
 10
-41.085231
 20
344.570960
 30
0.0
 0
VERTEX
 8
0
 10
-41.655208
 20
344.878455
 30
0.0
 0
VERTEX
 8
0
 10
-42.280208
 20
345.130957
 30
0.0
 0
VERTEX
 8
0
 10
-42.962734
 20
345.333472
 30
0.0
 0
VERTEX
 8
0
 10
-43.700221
 20
345.478461
 30
0.0
 0
VERTEX
 8
0
 10
-44.492732
 20
345.565955
 30
0.0
 0
VERTEX
 8
0
 10
-44.907710
 20
345.588477
 30
0.0
 0
VERTEX
 8
0
 10
-45.340236
 20
345.595954
 30
0.0
 0
VERTEX
 8
0
 10
-45.755214
 20
345.590979
 30
0.0
 0
VERTEX
 8
0
 10
-46.145229
 20
345.578467
 30
0.0
 0
VERTEX
 8
0
 10
-46.507717
 20
345.558478
 30
0.0
 0
VERTEX
 8
0
 10
-46.845210
 20
345.530951
 30
0.0
 0
VERTEX
 8
0
 10
-47.155208
 20
345.495978
 30
0.0
 0
VERTEX
 8
0
 10
-47.440212
 20
345.458472
 30
0.0
 0
VERTEX
 8
0
 10
-47.697719
 20
345.415961
 30
0.0
 0
VERTEX
 8
0
 10
-47.930232
 20
345.368476
 30
0.0
 0
VERTEX
 8
0
 10
-47.930232
 20
340.303348
 30
0.0
 0
SEQEND
 8
0
 0
LINE
 8
0
 62
256
10
 -50.140224
20
 337.801347
11
 -47.930232
21
 337.803347
 0
LINE
 8
0
 62
256
10
 -50.140224
20
 340.301348
11
 -47.930232
21
 340.303348
 0
POLYLINE
 8
0
 62
7
 66
 1
 10
0.0
 20
0.0
 30
0.0
 0
VERTEX
 8
0
 10
-16.850215
 20
343.439152
 30
0.0
 0
VERTEX
 8
0
 10
-16.850215
 20
346.918463
 30
0.0
 0
VERTEX
 8
0
 10
-16.407710
 20
346.990973
 30
0.0
 0
VERTEX
 8
0
 10
-15.927730
 20
347.058478
 30
0.0
 0
VERTEX
 8
0
 10
-15.412715
 20
347.120978
 30
0.0
 0
VERTEX
 8
0
 10
-14.872737
 20
347.170966
 30
0.0
 0
VERTEX
 8
0
 10
-14.312709
 20
347.213477
 30
0.0
 0
VERTEX
 8
0
 10
-13.745235
 20
347.245978
 30
0.0
 0
VERTEX
 8
0
 10
-12.607723
 20
347.273474
 30
0.0
 0
VERTEX
 8
0
 10
-12.175228
 20
347.268470
 30
0.0
 0
VERTEX
 8
0
 10
-11.760219
 20
347.250952
 30
0.0
 0
VERTEX
 8
0
 10
-11.362728
 20
347.225959
 30
0.0
 0
VERTEX
 8
0
 10
-10.982723
 20
347.188452
 30
0.0
 0
VERTEX
 8
0
 10
-10.622737
 20
347.138465
 30
0.0
 0
VERTEX
 8
0
 10
-10.277736
 20
347.078467
 30
0.0
 0
VERTEX
 8
0
 10
-9.947719
 20
347.008460
 30
0.0
 0
VERTEX
 8
0
 10
-9.635219
 20
346.925971
 30
0.0
 0
VERTEX
 8
0
 10
-9.337734
 20
346.835974
 30
0.0
 0
VERTEX
 8
0
 10
-9.055232
 20
346.730963
 30
0.0
 0
VERTEX
 8
0
 10
-8.535213
 20
346.490973
 30
0.0
 0
VERTEX
 8
0
 10
-8.067714
 20
346.205970
 30
0.0
 0
VERTEX
 8
0
 10
-7.652736
 20
345.875952
 30
0.0
 0
VERTEX
 8
0
 10
-7.355220
 20
345.570960
 30
0.0
 0
VERTEX
 8
0
 10
-7.090236
 20
345.230963
 30
0.0
 0
VERTEX
 8
0
 10
-6.860225
 20
344.858466
 30
0.0
 0
VERTEX
 8
0
 10
-6.665218
 20
344.455970
 30
0.0
 0
VERTEX
 8
0
 10
-6.512721
 20
344.025977
 30
0.0
 0
VERTEX
 8
0
 10
-6.400234
 20
343.573462
 30
0.0
 0
VERTEX
 8
0
 10
-6.330226
 20
343.095954
 30
0.0
 0
VERTEX
 8
0
 10
-6.307735
 20
342.600959
 30
0.0
 0
VERTEX
 8
0
 10
-6.325221
 20
342.190955
 30
0.0
 0
VERTEX
 8
0
 10
-6.372737
 20
341.795966
 30
0.0
 0
VERTEX
 8
0
 10
-6.450221
 20
341.420966
 30
0.0
 0
VERTEX
 8
0
 10
-6.557735
 20
341.063452
 30
0.0
 0
VERTEX
 8
0
 10
-6.692714
 20
340.723456
 30
0.0
 0
VERTEX
 8
0
 10
-6.852718
 20
340.403479
 30
0.0
 0
VERTEX
 8
0
 10
-7.035213
 20
340.100959
 30
0.0
 0
VERTEX
 8
0
 10
-7.240230
 20
339.818457
 30
0.0
 0
VERTEX
 8
0
 10
-7.467708
 20
339.553473
 30
0.0
 0
VERTEX
 8
0
 10
-7.715236
 20
339.308478
 30
0.0
 0
VERTEX
 8
0
 10
-7.977718
 20
339.083472
 30
0.0
 0
VERTEX
 8
0
 10
-8.257717
 20
338.878455
 30
0.0
 0
VERTEX
 8
0
 10
-8.552730
 20
338.690955
 30
0.0
 0
VERTEX
 8
0
 10
-8.860225
 20
338.525977
 30
0.0
 0
VERTEX
 8
0
 10
-9.177730
 20
338.380957
 30
0.0
 0
VERTEX
 8
0
 10
-9.507717
 20
338.255957
 30
0.0
 0
VERTEX
 8
0
 10
-9.507717
 20
338.180976
 30
0.0
 0
VERTEX
 8
0
 10
-9.270229
 20
338.085974
 30
0.0
 0
VERTEX
 8
0
 10
-9.045223
 20
337.973456
 30
0.0
 0
VERTEX
 8
0
 10
-8.832729
 20
337.843451
 30
0.0
 0
VERTEX
 8
0
 10
-8.630214
 20
337.698462
 30
0.0
 0
VERTEX
 8
0
 10
-8.437709
 20
337.535956
 30
0.0
 0
VERTEX
 8
0
 10
-8.257717
 20
337.355963
 30
0.0
 0
VERTEX
 8
0
 10
-8.087734
 20
337.160956
 30
0.0
 0
VERTEX
 8
0
 10
-7.930232
 20
336.948462
 30
0.0
 0
VERTEX
 8
0
 10
-7.780208
 20
336.720954
 30
0.0
 0
VERTEX
 8
0
 10
-7.642726
 20
336.478461
 30
0.0
 0
VERTEX
 8
0
 10
-7.397731
 20
335.950965
 30
0.0
 0
VERTEX
 8
0
 10
-7.187709
 20
335.365973
 30
0.0
 0
VERTEX
 8
0
 10
-7.017726
 20
334.725959
 30
0.0
 0
VERTEX
 8
0
 10
-6.915218
 20
334.285956
 30
0.0
 0
VERTEX
 8
0
 10
-6.815212
 20
333.865973
 30
0.0
 0
VERTEX
 8
0
 10
-6.720210
 20
333.463477
 30
0.0
 0
VERTEX
 8
0
 10
-6.625209
 20
333.075965
 30
0.0
 0
VERTEX
 8
0
 10
-6.535213
 20
332.710974
 30
0.0
 0
VERTEX
 8
0
 10
-6.447719
 20
332.363471
 30
0.0
 0
VERTEX
 8
0
 10
-6.362728
 20
332.035956
 30
0.0
 0
VERTEX
 8
0
 10
-6.282710
 20
331.728461
 30
0.0
 0
VERTEX
 8
0
 10
-6.202724
 20
331.440955
 30
0.0
 0
VERTEX
 8
0
 10
-6.125209
 20
331.173468
 30
0.0
 0
VERTEX
 8
0
 10
-6.047725
 20
330.928473
 30
0.0
 0
VERTEX
 8
0
 10
-5.975215
 20
330.703467
 30
0.0
 0
VERTEX
 8
0
 10
-5.902736
 20
330.500952
 30
0.0
 0
VERTEX
 8
0
 10
-5.832729
 20
330.318457
 30
0.0
 0
VERTEX
 8
0
 10
-5.765224
 20
330.160956
 30
0.0
 0
VERTEX
 8
0
 10
-5.697719
 20
330.025977
 30
0.0
 0
VERTEX
 8
0
 10
-7.985225
 20
330.025977
 30
0.0
 0
VERTEX
 8
0
 10
-8.037715
 20
330.130957
 30
0.0
 0
VERTEX
 8
0
 10
-8.095210
 20
330.260962
 30
0.0
 0
VERTEX
 8
0
 10
-8.152736
 20
330.408454
 30
0.0
 0
VERTEX
 8
0
 10
-8.212734
 20
330.578467
 30
0.0
 0
VERTEX
 8
0
 10
-8.275234
 20
330.768470
 30
0.0
 0
VERTEX
 8
0
 10
-8.340236
 20
330.980963
 30
0.0
 0
VERTEX
 8
0
 10
-8.407710
 20
331.210974
 30
0.0
 0
VERTEX
 8
0
 10
-8.477718
 20
331.460974
 30
0.0
 0
VERTEX
 8
0
 10
-8.547725
 20
331.728461
 30
0.0
 0
VERTEX
 8
0
 10
-8.620235
 20
332.018470
 30
0.0
 0
VERTEX
 8
0
 10
-8.697719
 20
332.323462
 30
0.0
 0
VERTEX
 8
0
 10
-8.775234
 20
332.648474
 30
0.0
 0
VERTEX
 8
0
 10
-8.852718
 20
332.988471
 30
0.0
 0
VERTEX
 8
0
 10
-8.935237
 20
333.348456
 30
0.0
 0
VERTEX
 8
0
 10
-9.017726
 20
333.723456
 30
0.0
 0
VERTEX
 8
0
 10
-9.102718
 20
334.115973
 30
0.0
 0
VERTEX
 8
0
 10
-9.202724
 20
334.540961
 30
0.0
 0
VERTEX
 8
0
 10
-9.315212
 20
334.933478
 30
0.0
 0
VERTEX
 8
0
 10
-9.437709
 20
335.293463
 30
0.0
 0
VERTEX
 8
0
 10
-9.575221
 20
335.620978
 30
0.0
 0
VERTEX
 8
0
 10
-9.725215
 20
335.918463
 30
0.0
 0
VERTEX
 8
0
 10
-9.890224
 20
336.185950
 30
0.0
 0
VERTEX
 8
0
 10
-10.070217
 20
336.425971
 30
0.0
 0
VERTEX
 8
0
 10
-10.267726
 20
336.635962
 30
0.0
 0
VERTEX
 8
0
 10
-10.482723
 20
336.820960
 30
0.0
 0
VERTEX
 8
0
 10
-10.715236
 20
336.978461
 30
0.0
 0
VERTEX
 8
0
 10
-10.967708
 20
337.113471
 30
0.0
 0
VERTEX
 8
0
 10
-11.240230
 20
337.223456
 30
0.0
 0
VERTEX
 8
0
 10
-11.535213
 20
337.310950
 30
0.0
 0
VERTEX
 8
0
 10
-11.852718
 20
337.375952
 30
0.0
 0
VERTEX
 8
0
 10
-12.192714
 20
337.418463
 30
0.0
 0
VERTEX
 8
0
 10
-12.555232
 20
337.443457
 30
0.0
 0
VERTEX
 8
0
 10
-14.640224
 20
337.443457
 30
0.0
 0
VERTEX
 8
0
 10
-14.640224
 20
330.025977
 30
0.0
 0
VERTEX
 8
0
 10
-16.850215
 20
330.025977
 30
0.0
 0
VERTEX
 8
0
 10
-16.850215
 20
340.939151
 30
0.0
 0
SEQEND
 8
0
 0
POLYLINE
 8
0
 62
7
 66
 1
 10
0.0
 20
0.0
 30
0.0
 0
VERTEX
 8
0
 10
-14.640224
 20
340.941152
 30
0.0
 0
VERTEX
 8
0
 10
-14.640224
 20
339.120978
 30
0.0
 0
VERTEX
 8
0
 10
-12.377712
 20
339.120978
 30
0.0
 0
VERTEX
 8
0
 10
-11.945217
 20
339.135962
 30
0.0
 0
VERTEX
 8
0
 10
-11.532710
 20
339.180976
 30
0.0
 0
VERTEX
 8
0
 10
-11.145229
 20
339.253455
 30
0.0
 0
VERTEX
 8
0
 10
-10.777736
 20
339.353461
 30
0.0
 0
VERTEX
 8
0
 10
-10.435237
 20
339.480963
 30
0.0
 0
VERTEX
 8
0
 10
-10.117732
 20
339.633460
 30
0.0
 0
VERTEX
 8
0
 10
-9.827724
 20
339.810950
 30
0.0
 0
VERTEX
 8
0
 10
-9.562709
 20
340.013465
 30
0.0
 0
VERTEX
 8
0
 10
-9.325221
 20
340.235968
 30
0.0
 0
VERTEX
 8
0
 10
-9.115230
 20
340.483466
 30
0.0
 0
VERTEX
 8
0
 10
-8.937709
 20
340.750952
 30
0.0
 0
VERTEX
 8
0
 10
-8.787715
 20
341.038459
 30
0.0
 0
VERTEX
 8
0
 10
-8.672725
 20
341.345954
 30
0.0
 0
VERTEX
 8
0
 10
-8.587734
 20
341.670966
 30
0.0
 0
VERTEX
 8
0
 10
-8.535213
 20
342.013465
 30
0.0
 0
VERTEX
 8
0
 10
-8.517726
 20
342.370978
 30
0.0
 0
VERTEX
 8
0
 10
-8.535213
 20
342.770972
 30
0.0
 0
VERTEX
 8
0
 10
-8.590236
 20
343.140967
 30
0.0
 0
VERTEX
 8
0
 10
-8.680232
 20
343.483466
 30
0.0
 0
VERTEX
 8
0
 10
-8.805232
 20
343.798468
 30
0.0
 0
VERTEX
 8
0
 10
-8.960231
 20
344.085974
 30
0.0
 0
VERTEX
 8
0
 10
-9.147731
 20
344.345954
 30
0.0
 0
VERTEX
 8
0
 10
-9.365230
 20
344.580970
 30
0.0
 0
VERTEX
 8
0
 10
-9.610225
 20
344.788459
 30
0.0
 0
VERTEX
 8
0
 10
-9.882717
 20
344.968451
 30
0.0
 0
VERTEX
 8
0
 10
-10.182735
 20
345.123450
 30
0.0
 0
VERTEX
 8
0
 10
-10.505214
 20
345.253455
 30
0.0
 0
VERTEX
 8
0
 10
-10.852718
 20
345.360968
 30
0.0
 0
VERTEX
 8
0
 10
-11.222713
 20
345.443457
 30
0.0
 0
VERTEX
 8
0
 10
-11.615230
 20
345.500952
 30
0.0
 0
VERTEX
 8
0
 10
-12.025234
 20
345.533454
 30
0.0
 0
VERTEX
 8
0
 10
-12.455226
 20
345.545966
 30
0.0
 0
VERTEX
 8
0
 10
-12.840236
 20
345.543463
 30
0.0
 0
VERTEX
 8
0
 10
-13.192714
 20
345.533454
 30
0.0
 0
VERTEX
 8
0
 10
-13.515224
 20
345.515967
 30
0.0
 0
VERTEX
 8
0
 10
-13.805232
 20
345.495978
 30
0.0
 0
VERTEX
 8
0
 10
-14.062709
 20
345.468451
 30
0.0
 0
VERTEX
 8
0
 10
-14.287715
 20
345.438452
 30
0.0
 0
VERTEX
 8
0
 10
-14.480220
 20
345.405951
 30
0.0
 0
VERTEX
 8
0
 10
-14.640224
 20
345.368476
 30
0.0
 0
VERTEX
 8
0
 10
-14.640224
 20
343.441153
 30
0.0
 0
SEQEND
 8
0
 0
LINE
 8
0
 62
256
10
 -16.850215
20
 343.439152
11
 -14.640224
21
 343.441153
 0
LINE
 8
0
 62
256
10
 -16.850215
20
 340.939151
11
 -14.640224
21
 340.941152
 0
POLYLINE
 8
0
 62
7
 66
 1
 10
0.0
 20
0.0
 30
0.0
 0
VERTEX
 8
0
 10
174.132268
 20
343.115028
 30
0.0
 0
VERTEX
 8
0
 10
174.132268
 20
346.918463
 30
0.0
 0
VERTEX
 8
0
 10
174.574772
 20
346.990973
 30
0.0
 0
VERTEX
 8
0
 10
175.054768
 20
347.058478
 30
0.0
 0
VERTEX
 8
0
 10
175.569768
 20
347.120978
 30
0.0
 0
VERTEX
 8
0
 10
176.109761
 20
347.170966
 30
0.0
 0
VERTEX
 8
0
 10
176.667271
 20
347.213477
 30
0.0
 0
VERTEX
 8
0
 10
177.237263
 20
347.245978
 30
0.0
 0
VERTEX
 8
0
 10
178.374760
 20
347.273474
 30
0.0
 0
VERTEX
 8
0
 10
178.807271
 20
347.268470
 30
0.0
 0
VERTEX
 8
0
 10
179.222264
 20
347.250952
 30
0.0
 0
VERTEX
 8
0
 10
179.619771
 20
347.225959
 30
0.0
 0
VERTEX
 8
0
 10
179.997273
 20
347.188452
 30
0.0
 0
VERTEX
 8
0
 10
180.359761
 20
347.138465
 30
0.0
 0
VERTEX
 8
0
 10
180.704762
 20
347.078467
 30
0.0
 0
VERTEX
 8
0
 10
181.032261
 20
347.008460
 30
0.0
 0
VERTEX
 8
0
 10
181.344761
 20
346.925971
 30
0.0
 0
VERTEX
 8
0
 10
181.642262
 20
346.835974
 30
0.0
 0
VERTEX
 8
0
 10
181.924763
 20
346.730963
 30
0.0
 0
VERTEX
 8
0
 10
182.444768
 20
346.490973
 30
0.0
 0
VERTEX
 8
0
 10
182.912266
 20
346.205970
 30
0.0
 0
VERTEX
 8
0
 10
183.327260
 20
345.875952
 30
0.0
 0
VERTEX
 8
0
 10
183.624760
 20
345.570960
 30
0.0
 0
VERTEX
 8
0
 10
183.889760
 20
345.230963
 30
0.0
 0
VERTEX
 8
0
 10
184.119771
 20
344.858466
 30
0.0
 0
VERTEX
 8
0
 10
184.314763
 20
344.455970
 30
0.0
 0
VERTEX
 8
0
 10
184.467259
 20
344.025977
 30
0.0
 0
VERTEX
 8
0
 10
184.579762
 20
343.573462
 30
0.0
 0
VERTEX
 8
0
 10
184.649769
 20
343.095954
 30
0.0
 0
VERTEX
 8
0
 10
184.672261
 20
342.600959
 30
0.0
 0
VERTEX
 8
0
 10
184.654759
 20
342.190955
 30
0.0
 0
VERTEX
 8
0
 10
184.607258
 20
341.795966
 30
0.0
 0
VERTEX
 8
0
 10
184.529759
 20
341.420966
 30
0.0
 0
VERTEX
 8
0
 10
184.422261
 20
341.063452
 30
0.0
 0
VERTEX
 8
0
 10
184.287266
 20
340.723456
 30
0.0
 0
VERTEX
 8
0
 10
184.127263
 20
340.403479
 30
0.0
 0
VERTEX
 8
0
 10
183.944768
 20
340.100959
 30
0.0
 0
VERTEX
 8
0
 10
183.739766
 20
339.818457
 30
0.0
 0
VERTEX
 8
0
 10
183.512272
 20
339.553473
 30
0.0
 0
VERTEX
 8
0
 10
183.264760
 20
339.308478
 30
0.0
 0
VERTEX
 8
0
 10
183.002263
 20
339.083472
 30
0.0
 0
VERTEX
 8
0
 10
182.722264
 20
338.878455
 30
0.0
 0
VERTEX
 8
0
 10
182.427266
 20
338.690955
 30
0.0
 0
VERTEX
 8
0
 10
182.119771
 20
338.525977
 30
0.0
 0
VERTEX
 8
0
 10
181.802266
 20
338.380957
 30
0.0
 0
VERTEX
 8
0
 10
181.472264
 20
338.255957
 30
0.0
 0
VERTEX
 8
0
 10
181.472264
 20
338.180976
 30
0.0
 0
VERTEX
 8
0
 10
181.709767
 20
338.085974
 30
0.0
 0
VERTEX
 8
0
 10
181.934773
 20
337.973456
 30
0.0
 0
VERTEX
 8
0
 10
182.147267
 20
337.843451
 30
0.0
 0
VERTEX
 8
0
 10
182.349766
 20
337.698462
 30
0.0
 0
VERTEX
 8
0
 10
182.542271
 20
337.535956
 30
0.0
 0
VERTEX
 8
0
 10
182.722264
 20
337.355963
 30
0.0
 0
VERTEX
 8
0
 10
182.892262
 20
337.160956
 30
0.0
 0
VERTEX
 8
0
 10
183.049763
 20
336.948462
 30
0.0
 0
VERTEX
 8
0
 10
183.199772
 20
336.720954
 30
0.0
 0
VERTEX
 8
0
 10
183.337269
 20
336.478461
 30
0.0
 0
VERTEX
 8
0
 10
183.582265
 20
335.950965
 30
0.0
 0
VERTEX
 8
0
 10
183.792271
 20
335.365973
 30
0.0
 0
VERTEX
 8
0
 10
183.962269
 20
334.725959
 30
0.0
 0
VERTEX
 8
0
 10
184.064763
 20
334.285956
 30
0.0
 0
VERTEX
 8
0
 10
184.164769
 20
333.865973
 30
0.0
 0
VERTEX
 8
0
 10
184.259770
 20
333.463477
 30
0.0
 0
VERTEX
 8
0
 10
184.354771
 20
333.075965
 30
0.0
 0
VERTEX
 8
0
 10
184.444768
 20
332.710974
 30
0.0
 0
VERTEX
 8
0
 10
184.532261
 20
332.363471
 30
0.0
 0
VERTEX
 8
0
 10
184.617268
 20
332.035956
 30
0.0
 0
VERTEX
 8
0
 10
184.697270
 20
331.728461
 30
0.0
 0
VERTEX
 8
0
 10
184.777272
 20
331.440955
 30
0.0
 0
VERTEX
 8
0
 10
184.854771
 20
331.173468
 30
0.0
 0
VERTEX
 8
0
 10
184.932271
 20
330.928473
 30
0.0
 0
VERTEX
 8
0
 10
185.004765
 20
330.703467
 30
0.0
 0
VERTEX
 8
0
 10
185.077260
 20
330.500952
 30
0.0
 0
VERTEX
 8
0
 10
185.147267
 20
330.318457
 30
0.0
 0
VERTEX
 8
0
 10
185.214772
 20
330.160956
 30
0.0
 0
VERTEX
 8
0
 10
185.282261
 20
330.025977
 30
0.0
 0
VERTEX
 8
0
 10
182.997273
 20
330.025977
 30
0.0
 0
VERTEX
 8
0
 10
182.944768
 20
330.130957
 30
0.0
 0
VERTEX
 8
0
 10
182.887272
 20
330.260962
 30
0.0
 0
VERTEX
 8
0
 10
182.829762
 20
330.408454
 30
0.0
 0
VERTEX
 8
0
 10
182.769765
 20
330.578467
 30
0.0
 0
VERTEX
 8
0
 10
182.707265
 20
330.768470
 30
0.0
 0
VERTEX
 8
0
 10
182.642262
 20
330.980963
 30
0.0
 0
VERTEX
 8
0
 10
182.574772
 20
331.210974
 30
0.0
 0
VERTEX
 8
0
 10
182.504765
 20
331.460974
 30
0.0
 0
VERTEX
 8
0
 10
182.434773
 20
331.728461
 30
0.0
 0
VERTEX
 8
0
 10
182.359761
 20
332.018470
 30
0.0
 0
VERTEX
 8
0
 10
182.284764
 20
332.323462
 30
0.0
 0
VERTEX
 8
0
 10
182.207265
 20
332.648474
 30
0.0
 0
VERTEX
 8
0
 10
182.129765
 20
332.988471
 30
0.0
 0
VERTEX
 8
0
 10
182.047261
 20
333.348456
 30
0.0
 0
VERTEX
 8
0
 10
181.964772
 20
333.723456
 30
0.0
 0
VERTEX
 8
0
 10
181.879765
 20
334.115973
 30
0.0
 0
VERTEX
 8
0
 10
181.779759
 20
334.540961
 30
0.0
 0
VERTEX
 8
0
 10
181.667271
 20
334.933478
 30
0.0
 0
VERTEX
 8
0
 10
181.544758
 20
335.293463
 30
0.0
 0
VERTEX
 8
0
 10
181.407261
 20
335.620978
 30
0.0
 0
VERTEX
 8
0
 10
181.257268
 20
335.918463
 30
0.0
 0
VERTEX
 8
0
 10
181.092259
 20
336.185950
 30
0.0
 0
VERTEX
 8
0
 10
180.912266
 20
336.425971
 30
0.0
 0
VERTEX
 8
0
 10
180.714772
 20
336.635962
 30
0.0
 0
VERTEX
 8
0
 10
180.499760
 20
336.820960
 30
0.0
 0
VERTEX
 8
0
 10
180.264760
 20
336.978461
 30
0.0
 0
VERTEX
 8
0
 10
180.012272
 20
337.113471
 30
0.0
 0
VERTEX
 8
0
 10
179.739766
 20
337.223456
 30
0.0
 0
VERTEX
 8
0
 10
179.444768
 20
337.310950
 30
0.0
 0
VERTEX
 8
0
 10
179.129765
 20
337.375952
 30
0.0
 0
VERTEX
 8
0
 10
178.789769
 20
337.418463
 30
0.0
 0
VERTEX
 8
0
 10
178.424763
 20
337.443457
 30
0.0
 0
VERTEX
 8
0
 10
176.339772
 20
337.443457
 30
0.0
 0
VERTEX
 8
0
 10
176.339772
 20
330.025977
 30
0.0
 0
VERTEX
 8
0
 10
174.132268
 20
330.025977
 30
0.0
 0
VERTEX
 8
0
 10
174.132268
 20
340.615027
 30
0.0
 0
SEQEND
 8
0
 0
POLYLINE
 8
0
 62
7
 66
 1
 10
0.0
 20
0.0
 30
0.0
 0
VERTEX
 8
0
 10
176.339772
 20
340.617026
 30
0.0
 0
VERTEX
 8
0
 10
176.339772
 20
339.120978
 30
0.0
 0
VERTEX
 8
0
 10
178.602269
 20
339.120978
 30
0.0
 0
VERTEX
 8
0
 10
179.034764
 20
339.135962
 30
0.0
 0
VERTEX
 8
0
 10
179.447270
 20
339.180976
 30
0.0
 0
VERTEX
 8
0
 10
179.834767
 20
339.253455
 30
0.0
 0
VERTEX
 8
0
 10
180.202260
 20
339.353461
 30
0.0
 0
VERTEX
 8
0
 10
180.544758
 20
339.480963
 30
0.0
 0
VERTEX
 8
0
 10
180.862263
 20
339.633460
 30
0.0
 0
VERTEX
 8
0
 10
181.152272
 20
339.810950
 30
0.0
 0
VERTEX
 8
0
 10
181.417271
 20
340.013465
 30
0.0
 0
VERTEX
 8
0
 10
181.654759
 20
340.235968
 30
0.0
 0
VERTEX
 8
0
 10
181.864766
 20
340.483466
 30
0.0
 0
VERTEX
 8
0
 10
182.042271
 20
340.750952
 30
0.0
 0
VERTEX
 8
0
 10
182.192265
 20
341.038459
 30
0.0
 0
VERTEX
 8
0
 10
182.307271
 20
341.345954
 30
0.0
 0
VERTEX
 8
0
 10
182.392262
 20
341.670966
 30
0.0
 0
VERTEX
 8
0
 10
182.444768
 20
342.013465
 30
0.0
 0
VERTEX
 8
0
 10
182.462269
 20
342.370978
 30
0.0
 0
VERTEX
 8
0
 10
182.444768
 20
342.770972
 30
0.0
 0
VERTEX
 8
0
 10
182.389760
 20
343.140967
 30
0.0
 0
VERTEX
 8
0
 10
182.299763
 20
343.483466
 30
0.0
 0
VERTEX
 8
0
 10
182.174763
 20
343.798468
 30
0.0
 0
VERTEX
 8
0
 10
182.019765
 20
344.085974
 30
0.0
 0
VERTEX
 8
0
 10
181.832265
 20
344.345954
 30
0.0
 0
VERTEX
 8
0
 10
181.614766
 20
344.580970
 30
0.0
 0
VERTEX
 8
0
 10
181.369771
 20
344.788459
 30
0.0
 0
VERTEX
 8
0
 10
181.097264
 20
344.968451
 30
0.0
 0
VERTEX
 8
0
 10
180.797261
 20
345.123450
 30
0.0
 0
VERTEX
 8
0
 10
180.474766
 20
345.253455
 30
0.0
 0
VERTEX
 8
0
 10
180.127263
 20
345.360968
 30
0.0
 0
VERTEX
 8
0
 10
179.757268
 20
345.443457
 30
0.0
 0
VERTEX
 8
0
 10
179.367268
 20
345.500952
 30
0.0
 0
VERTEX
 8
0
 10
178.957265
 20
345.533454
 30
0.0
 0
VERTEX
 8
0
 10
178.527272
 20
345.545966
 30
0.0
 0
VERTEX
 8
0
 10
178.142262
 20
345.543463
 30
0.0
 0
VERTEX
 8
0
 10
177.787266
 20
345.533454
 30
0.0
 0
VERTEX
 8
0
 10
177.464772
 20
345.515967
 30
0.0
 0
VERTEX
 8
0
 10
177.174763
 20
345.495978
 30
0.0
 0
VERTEX
 8
0
 10
176.917271
 20
345.468451
 30
0.0
 0
VERTEX
 8
0
 10
176.692265
 20
345.438452
 30
0.0
 0
VERTEX
 8
0
 10
176.499760
 20
345.405951
 30
0.0
 0
VERTEX
 8
0
 10
176.339772
 20
345.368476
 30
0.0
 0
VERTEX
 8
0
 10
176.339772
 20
343.117027
 30
0.0
 0
SEQEND
 8
0
 0
LINE
 8
0
 62
256
10
 174.132268
20
 340.615027
11
 176.339772
21
 340.617026
 0
LINE
 8
0
 62
256
10
 174.132268
20
 343.115028
11
 176.339772
21
 343.117027
 0
POLYLINE
 8
0
 62
7
 66
 1
 10
0.0
 20
0.0
 30
0.0
 0
VERTEX
 8
0
 10
-16.402366
 20
302.271068
 30
0.0
 0
VERTEX
 8
0
 10
-16.392726
 20
302.178473
 30
0.0
 0
VERTEX
 8
0
 10
-16.280208
 20
301.525977
 30
0.0
 0
VERTEX
 8
0
 10
-16.120235
 20
300.893470
 30
0.0
 0
VERTEX
 8
0
 10
-15.920223
 20
300.288459
 30
0.0
 0
VERTEX
 8
0
 10
-15.672725
 20
299.713477
 30
0.0
 0
VERTEX
 8
0
 10
-15.385219
 20
299.173468
 30
0.0
 0
VERTEX
 8
0
 10
-15.057735
 20
298.673468
 30
0.0
 0
VERTEX
 8
0
 10
-14.687709
 20
298.215979
 30
0.0
 0
VERTEX
 8
0
 10
-14.275234
 20
297.805976
 30
0.0
 0
VERTEX
 8
0
 10
-13.825221
 20
297.445960
 30
0.0
 0
VERTEX
 8
0
 10
-13.335231
 20
297.143470
 30
0.0
 0
VERTEX
 8
0
 10
-13.077724
 20
297.013465
 30
0.0
 0
VERTEX
 8
0
 10
-12.807735
 20
296.900977
 30
0.0
 0
VERTEX
 8
0
 10
-12.530208
 20
296.803473
 30
0.0
 0
VERTEX
 8
0
 10
-12.242732
 20
296.720954
 30
0.0
 0
VERTEX
 8
0
 10
-11.945217
 20
296.658454
 30
0.0
 0
VERTEX
 8
0
 10
-11.640224
 20
296.610968
 30
0.0
 0
VERTEX
 8
0
 10
-11.325221
 20
296.583472
 30
0.0
 0
VERTEX
 8
0
 10
-11.000209
 20
296.573462
 30
0.0
 0
VERTEX
 8
0
 10
-10.675228
 20
296.583472
 30
0.0
 0
VERTEX
 8
0
 10
-10.360225
 20
296.610968
 30
0.0
 0
VERTEX
 8
0
 10
-10.055232
 20
296.655951
 30
0.0
 0
VERTEX
 8
0
 10
-9.757717
 20
296.720954
 30
0.0
 0
VERTEX
 8
0
 10
-9.470210
 20
296.800971
 30
0.0
 0
VERTEX
 8
0
 10
-9.192714
 20
296.895972
 30
0.0
 0
VERTEX
 8
0
 10
-8.922725
 20
297.010962
 30
0.0
 0
VERTEX
 8
0
 10
-8.665218
 20
297.138465
 30
0.0
 0
VERTEX
 8
0
 10
-8.415218
 20
297.280951
 30
0.0
 0
VERTEX
 8
0
 10
-8.175228
 20
297.440955
 30
0.0
 0
VERTEX
 8
0
 10
-7.722713
 20
297.798468
 30
0.0
 0
VERTEX
 8
0
 10
-7.312709
 20
298.210974
 30
0.0
 0
VERTEX
 8
0
 10
-6.942714
 20
298.673468
 30
0.0
 0
VERTEX
 8
0
 10
-6.612728
 20
299.178473
 30
0.0
 0
VERTEX
 8
0
 10
-6.325221
 20
299.728461
 30
0.0
 0
VERTEX
 8
0
 10
-6.080226
 20
300.315955
 30
0.0
 0
VERTEX
 8
0
 10
-5.877712
 20
300.935981
 30
0.0
 0
VERTEX
 8
0
 10
-5.717708
 20
301.585974
 30
0.0
 0
VERTEX
 8
0
 10
-5.605220
 20
302.265967
 30
0.0
 0
VERTEX
 8
0
 10
-5.535213
 20
302.965979
 30
0.0
 0
VERTEX
 8
0
 10
-5.512721
 20
303.685981
 30
0.0
 0
VERTEX
 8
0
 10
-5.532710
 20
304.328467
 30
0.0
 0
VERTEX
 8
0
 10
-5.595210
 20
304.970954
 30
0.0
 0
VERTEX
 8
0
 10
-5.700221
 20
305.603461
 30
0.0
 0
VERTEX
 8
0
 10
-5.847713
 20
306.225959
 30
0.0
 0
VERTEX
 8
0
 10
-6.037715
 20
306.825965
 30
0.0
 0
VERTEX
 8
0
 10
-6.270229
 20
307.403479
 30
0.0
 0
VERTEX
 8
0
 10
-6.545223
 20
307.953467
 30
0.0
 0
VERTEX
 8
0
 10
-6.862728
 20
308.465979
 30
0.0
 0
VERTEX
 8
0
 10
-7.222713
 20
308.938452
 30
0.0
 0
VERTEX
 8
0
 10
-7.627712
 20
309.365973
 30
0.0
 0
VERTEX
 8
0
 10
-8.075221
 20
309.743476
 30
0.0
 0
VERTEX
 8
0
 10
-8.315212
 20
309.910956
 30
0.0
 0
VERTEX
 8
0
 10
-8.565212
 20
310.063452
 30
0.0
 0
VERTEX
 8
0
 10
-8.827724
 20
310.200965
 30
0.0
 0
VERTEX
 8
0
 10
-9.100215
 20
310.323462
 30
0.0
 0
VERTEX
 8
0
 10
-9.385219
 20
310.425971
 30
0.0
 0
VERTEX
 8
0
 10
-9.680232
 20
310.513465
 30
0.0
 0
VERTEX
 8
0
 10
-9.987728
 20
310.583472
 30
0.0
 0
VERTEX
 8
0
 10
-10.305232
 20
310.633460
 30
0.0
 0
VERTEX
 8
0
 10
-10.632717
 20
310.663459
 30
0.0
 0
VERTEX
 8
0
 10
-10.972713
 20
310.673468
 30
0.0
 0
VERTEX
 8
0
 10
-11.312709
 20
310.663459
 30
0.0
 0
VERTEX
 8
0
 10
-11.642726
 20
310.633460
 30
0.0
 0
VERTEX
 8
0
 10
-11.960231
 20
310.585974
 30
0.0
 0
VERTEX
 8
0
 10
-12.267726
 20
310.520972
 30
0.0
 0
VERTEX
 8
0
 10
-12.565212
 20
310.435981
 30
0.0
 0
VERTEX
 8
0
 10
-12.850215
 20
310.333472
 30
0.0
 0
VERTEX
 8
0
 10
-13.125209
 20
310.215979
 30
0.0
 0
VERTEX
 8
0
 10
-13.387721
 20
310.083472
 30
0.0
 0
VERTEX
 8
0
 10
-13.642726
 20
309.933478
 30
0.0
 0
VERTEX
 8
0
 10
-13.885219
 20
309.770972
 30
0.0
 0
VERTEX
 8
0
 10
-14.335231
 20
309.398474
 30
0.0
 0
VERTEX
 8
0
 10
-14.745235
 20
308.975959
 30
0.0
 0
VERTEX
 8
0
 10
-15.110225
 20
308.503455
 30
0.0
 0
VERTEX
 8
0
 10
-15.432735
 20
307.988471
 30
0.0
 0
VERTEX
 8
0
 10
-15.712734
 20
307.433478
 30
0.0
 0
VERTEX
 8
0
 10
-15.947719
 20
306.845954
 30
0.0
 0
VERTEX
 8
0
 10
-16.142726
 20
306.225959
 30
0.0
 0
VERTEX
 8
0
 10
-16.292720
 20
305.580970
 30
0.0
 0
VERTEX
 8
0
 10
-16.400234
 20
304.913459
 30
0.0
 0
VERTEX
 8
0
 10
-16.413274
 20
304.771059
 30
0.0
 0
SEQEND
 8
0
 0
POLYLINE
 8
0
 62
7
 66
 1
 10
0.0
 20
0.0
 30
0.0
 0
VERTEX
 8
0
 10
-18.754222
 20
304.768940
 30
0.0
 0
VERTEX
 8
0
 10
-18.735225
 20
304.960974
 30
0.0
 0
VERTEX
 8
0
 10
-18.670223
 20
305.430976
 30
0.0
 0
VERTEX
 8
0
 10
-18.585231
 20
305.888465
 30
0.0
 0
VERTEX
 8
0
 10
-18.482723
 20
306.333472
 30
0.0
 0
VERTEX
 8
0
 10
-18.362728
 20
306.763465
 30
0.0
 0
VERTEX
 8
0
 10
-18.227718
 20
307.183478
 30
0.0
 0
VERTEX
 8
0
 10
-18.075221
 20
307.588477
 30
0.0
 0
VERTEX
 8
0
 10
-17.905208
 20
307.978461
 30
0.0
 0
VERTEX
 8
0
 10
-17.720210
 20
308.355963
 30
0.0
 0
VERTEX
 8
0
 10
-17.520229
 20
308.718451
 30
0.0
 0
VERTEX
 8
0
 10
-17.305232
 20
309.065955
 30
0.0
 0
VERTEX
 8
0
 10
-17.075221
 20
309.398474
 30
0.0
 0
VERTEX
 8
0
 10
-16.832729
 20
309.715979
 30
0.0
 0
VERTEX
 8
0
 10
-16.575221
 20
310.018470
 30
0.0
 0
VERTEX
 8
0
 10
-16.302730
 20
310.305976
 30
0.0
 0
VERTEX
 8
0
 10
-16.020229
 20
310.573462
 30
0.0
 0
VERTEX
 8
0
 10
-15.722713
 20
310.828467
 30
0.0
 0
VERTEX
 8
0
 10
-15.415218
 20
311.063452
 30
0.0
 0
VERTEX
 8
0
 10
-15.092708
 20
311.283454
 30
0.0
 0
VERTEX
 8
0
 10
-14.762721
 20
311.485968
 30
0.0
 0
VERTEX
 8
0
 10
-14.417720
 20
311.668463
 30
0.0
 0
VERTEX
 8
0
 10
-14.065212
 20
311.835974
 30
0.0
 0
VERTEX
 8
0
 10
-13.700221
 20
311.983466
 30
0.0
 0
VERTEX
 8
0
 10
-13.327724
 20
312.110968
 30
0.0
 0
VERTEX
 8
0
 10
-12.942714
 20
312.220954
 30
0.0
 0
VERTEX
 8
0
 10
-12.550228
 20
312.310981
 30
0.0
 0
VERTEX
 8
0
 10
-12.150234
 20
312.383460
 30
0.0
 0
VERTEX
 8
0
 10
-11.740230
 20
312.433478
 30
0.0
 0
VERTEX
 8
0
 10
-11.322719
 20
312.465979
 30
0.0
 0
VERTEX
 8
0
 10
-10.897731
 20
312.475959
 30
0.0
 0
VERTEX
 8
0
 10
-10.462734
 20
312.465979
 30
0.0
 0
VERTEX
 8
0
 10
-10.035213
 20
312.433478
 30
0.0
 0
VERTEX
 8
0
 10
-9.620235
 20
312.383460
 30
0.0
 0
VERTEX
 8
0
 10
-9.217708
 20
312.310981
 30
0.0
 0
VERTEX
 8
0
 10
-8.822719
 20
312.220954
 30
0.0
 0
VERTEX
 8
0
 10
-8.440212
 20
312.110968
 30
0.0
 0
VERTEX
 8
0
 10
-8.067714
 20
311.983466
 30
0.0
 0
VERTEX
 8
0
 10
-7.707729
 20
311.835974
 30
0.0
 0
VERTEX
 8
0
 10
-7.360225
 20
311.670966
 30
0.0
 0
VERTEX
 8
0
 10
-7.025234
 20
311.488471
 30
0.0
 0
VERTEX
 8
0
 10
-6.700221
 20
311.288459
 30
0.0
 0
VERTEX
 8
0
 10
-6.387721
 20
311.073462
 30
0.0
 0
VERTEX
 8
0
 10
-6.090236
 20
310.840979
 30
0.0
 0
VERTEX
 8
0
 10
-5.805232
 20
310.590979
 30
0.0
 0
VERTEX
 8
0
 10
-5.532710
 20
310.325965
 30
0.0
 0
VERTEX
 8
0
 10
-5.275234
 20
310.045966
 30
0.0
 0
VERTEX
 8
0
 10
-4.797725
 20
309.440955
 30
0.0
 0
VERTEX
 8
0
 10
-4.380214
 20
308.780951
 30
0.0
 0
VERTEX
 8
0
 10
-4.192714
 20
308.428473
 30
0.0
 0
VERTEX
 8
0
 10
-4.020229
 20
308.065955
 30
0.0
 0
VERTEX
 8
0
 10
-3.862728
 20
307.688452
 30
0.0
 0
VERTEX
 8
0
 10
-3.720210
 20
307.298468
 30
0.0
 0
VERTEX
 8
0
 10
-3.595210
 20
306.898474
 30
0.0
 0
VERTEX
 8
0
 10
-3.485225
 20
306.485968
 30
0.0
 0
VERTEX
 8
0
 10
-3.392726
 20
306.060981
 30
0.0
 0
VERTEX
 8
0
 10
-3.315212
 20
305.628455
 30
0.0
 0
VERTEX
 8
0
 10
-3.252712
 20
305.183478
 30
0.0
 0
VERTEX
 8
0
 10
-3.210231
 20
304.728461
 30
0.0
 0
VERTEX
 8
0
 10
-3.185237
 20
304.263465
 30
0.0
 0
VERTEX
 8
0
 10
-3.175228
 20
303.788459
 30
0.0
 0
VERTEX
 8
0
 10
-3.185237
 20
303.245978
 30
0.0
 0
VERTEX
 8
0
 10
-3.217708
 20
302.720954
 30
0.0
 0
VERTEX
 8
0
 10
-3.267726
 20
302.210974
 30
0.0
 0
VERTEX
 8
0
 10
-3.337734
 20
301.715979
 30
0.0
 0
VERTEX
 8
0
 10
-3.427730
 20
301.238471
 30
0.0
 0
VERTEX
 8
0
 10
-3.535213
 20
300.778479
 30
0.0
 0
VERTEX
 8
0
 10
-3.660213
 20
300.333472
 30
0.0
 0
VERTEX
 8
0
 10
-3.802730
 20
299.903479
 30
0.0
 0
VERTEX
 8
0
 10
-3.962734
 20
299.493476
 30
0.0
 0
VERTEX
 8
0
 10
-4.140224
 20
299.095954
 30
0.0
 0
VERTEX
 8
0
 10
-4.332729
 20
298.718451
 30
0.0
 0
VERTEX
 8
0
 10
-4.540218
 20
298.355963
 30
0.0
 0
VERTEX
 8
0
 10
-4.762721
 20
298.010962
 30
0.0
 0
VERTEX
 8
0
 10
-4.997737
 20
297.683478
 30
0.0
 0
VERTEX
 8
0
 10
-5.247737
 20
297.373481
 30
0.0
 0
VERTEX
 8
0
 10
-5.512721
 20
297.078467
 30
0.0
 0
VERTEX
 8
0
 10
-5.790218
 20
296.803473
 30
0.0
 0
VERTEX
 8
0
 10
-6.077724
 20
296.543463
 30
0.0
 0
VERTEX
 8
0
 10
-6.380214
 20
296.300971
 30
0.0
 0
VERTEX
 8
0
 10
-6.690212
 20
296.075965
 30
0.0
 0
VERTEX
 8
0
 10
-7.012721
 20
295.870978
 30
0.0
 0
VERTEX
 8
0
 10
-7.347713
 20
295.680976
 30
0.0
 0
VERTEX
 8
0
 10
-7.690212
 20
295.508460
 30
0.0
 0
VERTEX
 8
0
 10
-8.042720
 20
295.353461
 30
0.0
 0
VERTEX
 8
0
 10
-8.402736
 20
295.218451
 30
0.0
 0
VERTEX
 8
0
 10
-8.770229
 20
295.100959
 30
0.0
 0
VERTEX
 8
0
 10
-9.147731
 20
294.998481
 30
0.0
 0
VERTEX
 8
0
 10
-9.530208
 20
294.915961
 30
0.0
 0
VERTEX
 8
0
 10
-9.922725
 20
294.853461
 30
0.0
 0
VERTEX
 8
0
 10
-10.317714
 20
294.805976
 30
0.0
 0
VERTEX
 8
0
 10
-10.720210
 20
294.778479
 30
0.0
 0
VERTEX
 8
0
 10
-11.127712
 20
294.770972
 30
0.0
 0
VERTEX
 8
0
 10
-11.550228
 20
294.780951
 30
0.0
 0
VERTEX
 8
0
 10
-11.962734
 20
294.810981
 30
0.0
 0
VERTEX
 8
0
 10
-12.367732
 20
294.863471
 30
0.0
 0
VERTEX
 8
0
 10
-12.762721
 20
294.933478
 30
0.0
 0
VERTEX
 8
0
 10
-13.150234
 20
295.023474
 30
0.0
 0
VERTEX
 8
0
 10
-13.525234
 20
295.130957
 30
0.0
 0
VERTEX
 8
0
 10
-13.892726
 20
295.258460
 30
0.0
 0
VERTEX
 8
0
 10
-14.247737
 20
295.403479
 30
0.0
 0
VERTEX
 8
0
 10
-14.592708
 20
295.565955
 30
0.0
 0
VERTEX
 8
0
 10
-14.925228
 20
295.748481
 30
0.0
 0
VERTEX
 8
0
 10
-15.247737
 20
295.945960
 30
0.0
 0
VERTEX
 8
0
 10
-15.560237
 20
296.160956
 30
0.0
 0
VERTEX
 8
0
 10
-15.857723
 20
296.393470
 30
0.0
 0
VERTEX
 8
0
 10
-16.145229
 20
296.640967
 30
0.0
 0
VERTEX
 8
0
 10
-16.417720
 20
296.903479
 30
0.0
 0
VERTEX
 8
0
 10
-16.680232
 20
297.183478
 30
0.0
 0
VERTEX
 8
0
 10
-16.927730
 20
297.478461
 30
0.0
 0
VERTEX
 8
0
 10
-17.160213
 20
297.788459
 30
0.0
 0
VERTEX
 8
0
 10
-17.585231
 20
298.448462
 30
0.0
 0
VERTEX
 8
0
 10
-17.777736
 20
298.800971
 30
0.0
 0
VERTEX
 8
0
 10
-17.952724
 20
299.165961
 30
0.0
 0
VERTEX
 8
0
 10
-18.115230
 20
299.543463
 30
0.0
 0
VERTEX
 8
0
 10
-18.260219
 20
299.935981
 30
0.0
 0
VERTEX
 8
0
 10
-18.387721
 20
300.338477
 30
0.0
 0
VERTEX
 8
0
 10
-18.502712
 20
300.753455
 30
0.0
 0
VERTEX
 8
0
 10
-18.597713
 20
301.180976
 30
0.0
 0
VERTEX
 8
0
 10
-18.677730
 20
301.620978
 30
0.0
 0
VERTEX
 8
0
 10
-18.740230
 20
302.070960
 30
0.0
 0
VERTEX
 8
0
 10
-18.759590
 20
302.268934
 30
0.0
 0
SEQEND
 8
0
 0
LINE
 8
0
 62
256
10
 -18.759590
20
 302.268934
11
 -16.402366
21
 302.271068
 0
LINE
 8
0
 62
256
10
 -18.754222
20
 304.768940
11
 -16.413274
21
 304.771059
 0
POLYLINE
 8
0
 62
7
 66
 1
 10
0.0
 20
0.0
 30
0.0
 0
VERTEX
 8
0
 10
17.442265
 20
305.968904
 30
0.0
 0
VERTEX
 8
0
 10
17.442265
 20
304.093451
 30
0.0
 0
VERTEX
 8
0
 10
19.702275
 20
304.093451
 30
0.0
 0
VERTEX
 8
0
 10
20.134770
 20
304.108466
 30
0.0
 0
VERTEX
 8
0
 10
20.547276
 20
304.153479
 30
0.0
 0
VERTEX
 8
0
 10
20.934788
 20
304.225959
 30
0.0
 0
VERTEX
 8
0
 10
21.302281
 20
304.325965
 30
0.0
 0
VERTEX
 8
0
 10
21.644780
 20
304.453467
 30
0.0
 0
VERTEX
 8
0
 10
21.962285
 20
304.605963
 30
0.0
 0
VERTEX
 8
0
 10
22.252263
 20
304.783454
 30
0.0
 0
VERTEX
 8
0
 10
22.517277
 20
304.985968
 30
0.0
 0
VERTEX
 8
0
 10
22.754765
 20
305.210974
 30
0.0
 0
VERTEX
 8
0
 10
22.964787
 20
305.455970
 30
0.0
 0
VERTEX
 8
0
 10
23.142277
 20
305.723456
 30
0.0
 0
VERTEX
 8
0
 10
23.292271
 20
306.010962
 30
0.0
 0
VERTEX
 8
0
 10
23.407292
 20
306.318457
 30
0.0
 0
VERTEX
 8
0
 10
23.492283
 20
306.643470
 30
0.0
 0
VERTEX
 8
0
 10
23.544774
 20
306.985968
 30
0.0
 0
VERTEX
 8
0
 10
23.562291
 20
307.345954
 30
0.0
 0
VERTEX
 8
0
 10
23.544774
 20
307.745978
 30
0.0
 0
VERTEX
 8
0
 10
23.489781
 20
308.115973
 30
0.0
 0
VERTEX
 8
0
 10
23.399785
 20
308.458472
 30
0.0
 0
VERTEX
 8
0
 10
23.277287
 20
308.773474
 30
0.0
 0
VERTEX
 8
0
 10
23.119786
 20
309.060981
 30
0.0
 0
VERTEX
 8
0
 10
22.934788
 20
309.320960
 30
0.0
 0
VERTEX
 8
0
 10
22.717290
 20
309.555976
 30
0.0
 0
VERTEX
 8
0
 10
22.472264
 20
309.763465
 30
0.0
 0
VERTEX
 8
0
 10
22.197270
 20
309.943457
 30
0.0
 0
VERTEX
 8
0
 10
21.899785
 20
310.098456
 30
0.0
 0
VERTEX
 8
0
 10
21.574772
 20
310.228461
 30
0.0
 0
VERTEX
 8
0
 10
21.227269
 20
310.335974
 30
0.0
 0
VERTEX
 8
0
 10
20.857274
 20
310.418463
 30
0.0
 0
VERTEX
 8
0
 10
20.467290
 20
310.475959
 30
0.0
 0
VERTEX
 8
0
 10
20.057286
 20
310.508460
 30
0.0
 0
VERTEX
 8
0
 10
19.627263
 20
310.520972
 30
0.0
 0
VERTEX
 8
0
 10
19.242283
 20
310.518470
 30
0.0
 0
VERTEX
 8
0
 10
18.889775
 20
310.508460
 30
0.0
 0
VERTEX
 8
0
 10
18.567265
 20
310.490973
 30
0.0
 0
VERTEX
 8
0
 10
18.277287
 20
310.470954
 30
0.0
 0
VERTEX
 8
0
 10
18.019780
 20
310.443457
 30
0.0
 0
VERTEX
 8
0
 10
17.794774
 20
310.413459
 30
0.0
 0
VERTEX
 8
0
 10
17.602269
 20
310.380957
 30
0.0
 0
VERTEX
 8
0
 10
17.442265
 20
310.343451
 30
0.0
 0
VERTEX
 8
0
 10
17.442265
 20
308.468905
 30
0.0
 0
SEQEND
 8
0
 0
POLYLINE
 8
0
 62
7
 66
 1
 10
0.0
 20
0.0
 30
0.0
 0
VERTEX
 8
0
 10
15.232274
 20
308.466904
 30
0.0
 0
VERTEX
 8
0
 10
15.232274
 20
311.893470
 30
0.0
 0
VERTEX
 8
0
 10
15.674779
 20
311.965979
 30
0.0
 0
VERTEX
 8
0
 10
16.154790
 20
312.033454
 30
0.0
 0
VERTEX
 8
0
 10
16.669774
 20
312.095954
 30
0.0
 0
VERTEX
 8
0
 10
17.209782
 20
312.145972
 30
0.0
 0
VERTEX
 8
0
 10
17.767277
 20
312.188452
 30
0.0
 0
VERTEX
 8
0
 10
18.337285
 20
312.220954
 30
0.0
 0
VERTEX
 8
0
 10
19.474766
 20
312.248481
 30
0.0
 0
VERTEX
 8
0
 10
19.907292
 20
312.243476
 30
0.0
 0
VERTEX
 8
0
 10
20.322270
 20
312.225959
 30
0.0
 0
VERTEX
 8
0
 10
20.719792
 20
312.200965
 30
0.0
 0
VERTEX
 8
0
 10
21.099766
 20
312.163459
 30
0.0
 0
VERTEX
 8
0
 10
21.459782
 20
312.113471
 30
0.0
 0
VERTEX
 8
0
 10
21.804783
 20
312.053473
 30
0.0
 0
VERTEX
 8
0
 10
22.134770
 20
311.983466
 30
0.0
 0
VERTEX
 8
0
 10
22.444768
 20
311.900977
 30
0.0
 0
VERTEX
 8
0
 10
22.742283
 20
311.810981
 30
0.0
 0
VERTEX
 8
0
 10
23.024785
 20
311.705970
 30
0.0
 0
VERTEX
 8
0
 10
23.544774
 20
311.465979
 30
0.0
 0
VERTEX
 8
0
 10
24.012272
 20
311.180976
 30
0.0
 0
VERTEX
 8
0
 10
24.427281
 20
310.850959
 30
0.0
 0
VERTEX
 8
0
 10
24.724766
 20
310.545966
 30
0.0
 0
VERTEX
 8
0
 10
24.992283
 20
310.205970
 30
0.0
 0
VERTEX
 8
0
 10
25.222264
 20
309.833472
 30
0.0
 0
VERTEX
 8
0
 10
25.414769
 20
309.430976
 30
0.0
 0
VERTEX
 8
0
 10
25.569768
 20
309.000952
 30
0.0
 0
VERTEX
 8
0
 10
25.682286
 20
308.545966
 30
0.0
 0
VERTEX
 8
0
 10
25.752263
 20
308.070960
 30
0.0
 0
VERTEX
 8
0
 10
25.774785
 20
307.573462
 30
0.0
 0
VERTEX
 8
0
 10
25.757268
 20
307.163459
 30
0.0
 0
VERTEX
 8
0
 10
25.709782
 20
306.770972
 30
0.0
 0
VERTEX
 8
0
 10
25.632268
 20
306.395972
 30
0.0
 0
VERTEX
 8
0
 10
25.524785
 20
306.038459
 30
0.0
 0
VERTEX
 8
0
 10
25.389775
 20
305.698462
 30
0.0
 0
VERTEX
 8
0
 10
25.229771
 20
305.378455
 30
0.0
 0
VERTEX
 8
0
 10
25.047276
 20
305.075965
 30
0.0
 0
VERTEX
 8
0
 10
24.839787
 20
304.790961
 30
0.0
 0
VERTEX
 8
0
 10
24.612279
 20
304.528479
 30
0.0
 0
VERTEX
 8
0
 10
24.367283
 20
304.283454
 30
0.0
 0
VERTEX
 8
0
 10
24.102269
 20
304.055976
 30
0.0
 0
VERTEX
 8
0
 10
23.822270
 20
303.850959
 30
0.0
 0
VERTEX
 8
0
 10
23.527287
 20
303.665961
 30
0.0
 0
VERTEX
 8
0
 10
23.219792
 20
303.500952
 30
0.0
 0
VERTEX
 8
0
 10
22.902287
 20
303.355963
 30
0.0
 0
VERTEX
 8
0
 10
22.572270
 20
303.230963
 30
0.0
 0
VERTEX
 8
0
 10
22.572270
 20
303.153479
 30
0.0
 0
VERTEX
 8
0
 10
22.809788
 20
303.058478
 30
0.0
 0
VERTEX
 8
0
 10
23.034764
 20
302.945960
 30
0.0
 0
VERTEX
 8
0
 10
23.249791
 20
302.818457
 30
0.0
 0
VERTEX
 8
0
 10
23.452275
 20
302.670966
 30
0.0
 0
VERTEX
 8
0
 10
23.642277
 20
302.508460
 30
0.0
 0
VERTEX
 8
0
 10
23.824772
 20
302.328467
 30
0.0
 0
VERTEX
 8
0
 10
23.992283
 20
302.133460
 30
0.0
 0
VERTEX
 8
0
 10
24.152287
 20
301.920966
 30
0.0
 0
VERTEX
 8
0
 10
24.299779
 20
301.695960
 30
0.0
 0
VERTEX
 8
0
 10
24.439763
 20
301.453467
 30
0.0
 0
VERTEX
 8
0
 10
24.684788
 20
300.925971
 30
0.0
 0
VERTEX
 8
0
 10
24.892277
 20
300.338477
 30
0.0
 0
VERTEX
 8
0
 10
25.062291
 20
299.698462
 30
0.0
 0
VERTEX
 8
0
 10
25.164769
 20
299.258460
 30
0.0
 0
VERTEX
 8
0
 10
25.264775
 20
298.838477
 30
0.0
 0
VERTEX
 8
0
 10
25.359776
 20
298.435981
 30
0.0
 0
VERTEX
 8
0
 10
25.454777
 20
298.050971
 30
0.0
 0
VERTEX
 8
0
 10
25.544774
 20
297.683478
 30
0.0
 0
VERTEX
 8
0
 10
25.632268
 20
297.335974
 30
0.0
 0
VERTEX
 8
0
 10
25.717290
 20
297.008460
 30
0.0
 0
VERTEX
 8
0
 10
25.797276
 20
296.700965
 30
0.0
 0
VERTEX
 8
0
 10
25.877263
 20
296.413459
 30
0.0
 0
VERTEX
 8
0
 10
25.954777
 20
296.145972
 30
0.0
 0
VERTEX
 8
0
 10
26.032292
 20
295.900977
 30
0.0
 0
VERTEX
 8
0
 10
26.104771
 20
295.675971
 30
0.0
 0
VERTEX
 8
0
 10
26.177281
 20
295.473456
 30
0.0
 0
VERTEX
 8
0
 10
26.247288
 20
295.293463
 30
0.0
 0
VERTEX
 8
0
 10
26.314763
 20
295.133460
 30
0.0
 0
VERTEX
 8
0
 10
26.382268
 20
294.998481
 30
0.0
 0
VERTEX
 8
0
 10
24.097264
 20
294.998481
 30
0.0
 0
VERTEX
 8
0
 10
24.044774
 20
295.105963
 30
0.0
 0
VERTEX
 8
0
 10
23.987279
 20
295.233466
 30
0.0
 0
VERTEX
 8
0
 10
23.929783
 20
295.383460
 30
0.0
 0
VERTEX
 8
0
 10
23.869786
 20
295.553473
 30
0.0
 0
VERTEX
 8
0
 10
23.807286
 20
295.743476
 30
0.0
 0
VERTEX
 8
0
 10
23.742283
 20
295.953467
 30
0.0
 0
VERTEX
 8
0
 10
23.674779
 20
296.185981
 30
0.0
 0
VERTEX
 8
0
 10
23.604771
 20
296.435981
 30
0.0
 0
VERTEX
 8
0
 10
23.534764
 20
296.703467
 30
0.0
 0
VERTEX
 8
0
 10
23.459782
 20
296.990973
 30
0.0
 0
VERTEX
 8
0
 10
23.384770
 20
297.298468
 30
0.0
 0
VERTEX
 8
0
 10
23.307286
 20
297.620978
 30
0.0
 0
VERTEX
 8
0
 10
23.229771
 20
297.963477
 30
0.0
 0
VERTEX
 8
0
 10
23.147282
 20
298.320960
 30
0.0
 0
VERTEX
 8
0
 10
23.064763
 20
298.695960
 30
0.0
 0
VERTEX
 8
0
 10
22.979771
 20
299.088477
 30
0.0
 0
VERTEX
 8
0
 10
22.879765
 20
299.513465
 30
0.0
 0
VERTEX
 8
0
 10
22.767277
 20
299.905951
 30
0.0
 0
VERTEX
 8
0
 10
22.644780
 20
300.265967
 30
0.0
 0
VERTEX
 8
0
 10
22.507268
 20
300.593451
 30
0.0
 0
VERTEX
 8
0
 10
22.357274
 20
300.890967
 30
0.0
 0
VERTEX
 8
0
 10
22.192265
 20
301.160956
 30
0.0
 0
VERTEX
 8
0
 10
22.012272
 20
301.398474
 30
0.0
 0
VERTEX
 8
0
 10
21.814763
 20
301.610968
 30
0.0
 0
VERTEX
 8
0
 10
21.599766
 20
301.793463
 30
0.0
 0
VERTEX
 8
0
 10
21.367283
 20
301.953467
 30
0.0
 0
VERTEX
 8
0
 10
21.112279
 20
302.085974
 30
0.0
 0
VERTEX
 8
0
 10
20.839787
 20
302.195960
 30
0.0
 0
VERTEX
 8
0
 10
20.544774
 20
302.283454
 30
0.0
 0
VERTEX
 8
0
 10
20.229771
 20
302.348456
 30
0.0
 0
VERTEX
 8
0
 10
19.889775
 20
302.390967
 30
0.0
 0
VERTEX
 8
0
 10
19.524785
 20
302.415961
 30
0.0
 0
VERTEX
 8
0
 10
17.442265
 20
302.415961
 30
0.0
 0
VERTEX
 8
0
 10
17.442265
 20
294.998481
 30
0.0
 0
VERTEX
 8
0
 10
15.232274
 20
294.998481
 30
0.0
 0
VERTEX
 8
0
 10
15.232274
 20
305.966903
 30
0.0
 0
SEQEND
 8
0
 0
LINE
 8
0
 62
256
10
 15.232274
20
 305.966903
11
 17.442265
21
 305.968904
 0
LINE
 8
0
 62
256
10
 15.232274
20
 308.466904
11
 17.442265
21
 308.468905
 0
POLYLINE
 8
0
 62
7
 66
 1
 10
0.0
 20
0.0
 30
0.0
 0
VERTEX
 8
0
 10
212.843315
 20
302.175971
 30
0.0
 0
VERTEX
 8
0
 10
214.189763
 20
302.175971
 30
0.0
 0
VERTEX
 8
0
 10
212.487263
 20
307.103461
 30
0.0
 0
VERTEX
 8
0
 10
212.224766
 20
307.923468
 30
0.0
 0
VERTEX
 8
0
 10
211.994771
 20
308.713477
 30
0.0
 0
VERTEX
 8
0
 10
211.792271
 20
309.478461
 30
0.0
 0
VERTEX
 8
0
 10
211.599766
 20
310.228461
 30
0.0
 0
VERTEX
 8
0
 10
211.547261
 20
310.228461
 30
0.0
 0
VERTEX
 8
0
 10
211.354771
 20
309.473456
 30
0.0
 0
VERTEX
 8
0
 10
211.154759
 20
308.698462
 30
0.0
 0
VERTEX
 8
0
 10
210.934758
 20
307.913459
 30
0.0
 0
VERTEX
 8
0
 10
210.684758
 20
307.128455
 30
0.0
 0
VERTEX
 8
0
 10
209.007268
 20
302.175971
 30
0.0
 0
VERTEX
 8
0
 10
210.343314
 20
302.175971
 30
0.0
 0
SEQEND
 8
0
 0
POLYLINE
 8
0
 62
7
 66
 1
 10
0.0
 20
0.0
 30
0.0
 0
VERTEX
 8
0
 10
210.344878
 20
300.448462
 30
0.0
 0
VERTEX
 8
0
 10
208.549763
 20
300.448462
 30
0.0
 0
VERTEX
 8
0
 10
206.772267
 20
295.063452
 30
0.0
 0
VERTEX
 8
0
 10
204.487263
 20
295.063452
 30
0.0
 0
VERTEX
 8
0
 10
210.329762
 20
312.183478
 30
0.0
 0
VERTEX
 8
0
 10
212.969761
 20
312.183478
 30
0.0
 0
VERTEX
 8
0
 10
218.812260
 20
295.063452
 30
0.0
 0
VERTEX
 8
0
 10
216.452260
 20
295.063452
 30
0.0
 0
VERTEX
 8
0
 10
214.622258
 20
300.448462
 30
0.0
 0
VERTEX
 8
0
 10
212.844879
 20
300.448462
 30
0.0
 0
SEQEND
 8
0
 0
LINE
 8
0
 62
256
10
 210.343314
20
 302.175971
11
 210.344878
21
 300.448462
 0
LINE
 8
0
 62
256
10
 212.843315
20
 302.175971
11
 212.844879
21
 300.448462
 0
POLYLINE
 8
0
 62
7
 66
 1
 10
0.0
 20
0.0
 30
0.0
 0
VERTEX
 8
0
 10
-9.989809
 20
267.150977
 30
0.0
 0
VERTEX
 8
0
 10
-8.520229
 20
267.150977
 30
0.0
 0
VERTEX
 8
0
 10
-10.222713
 20
272.078467
 30
0.0
 0
VERTEX
 8
0
 10
-10.487728
 20
272.898474
 30
0.0
 0
VERTEX
 8
0
 10
-10.715236
 20
273.688452
 30
0.0
 0
VERTEX
 8
0
 10
-10.920223
 20
274.453467
 30
0.0
 0
VERTEX
 8
0
 10
-11.112728
 20
275.200965
 30
0.0
 0
VERTEX
 8
0
 10
-11.162715
 20
275.200965
 30
0.0
 0
VERTEX
 8
0
 10
-11.355220
 20
274.445960
 30
0.0
 0
VERTEX
 8
0
 10
-11.557735
 20
273.670966
 30
0.0
 0
VERTEX
 8
0
 10
-11.777736
 20
272.885962
 30
0.0
 0
VERTEX
 8
0
 10
-12.027736
 20
272.103461
 30
0.0
 0
VERTEX
 8
0
 10
-13.702724
 20
267.150977
 30
0.0
 0
VERTEX
 8
0
 10
-12.489810
 20
267.150977
 30
0.0
 0
SEQEND
 8
0
 0
POLYLINE
 8
0
 62
7
 66
 1
 10
0.0
 20
0.0
 30
0.0
 0
VERTEX
 8
0
 10
-12.488246
 20
265.423468
 30
0.0
 0
VERTEX
 8
0
 10
-14.160213
 20
265.423468
 30
0.0
 0
VERTEX
 8
0
 10
-15.940212
 20
260.035956
 30
0.0
 0
VERTEX
 8
0
 10
-18.225215
 20
260.035956
 30
0.0
 0
VERTEX
 8
0
 10
-12.382717
 20
277.158454
 30
0.0
 0
VERTEX
 8
0
 10
-9.740230
 20
277.158454
 30
0.0
 0
VERTEX
 8
0
 10
-3.897731
 20
260.035956
 30
0.0
 0
VERTEX
 8
0
 10
-6.260219
 20
260.035956
 30
0.0
 0
VERTEX
 8
0
 10
-8.090236
 20
265.423468
 30
0.0
 0
VERTEX
 8
0
 10
-9.988245
 20
265.423468
 30
0.0
 0
SEQEND
 8
0
 0
LINE
 8
0
 62
256
10
 -9.989809
20
 267.150977
11
 -9.988245
21
 265.423468
 0
LINE
 8
0
 62
256
10
 -12.489810
20
 267.150977
11
 -12.488246
21
 265.423468
 0
POLYLINE
 8
0
 62
7
 66
 1
 10
0.0
 20
0.0
 30
0.0
 0
VERTEX
 8
0
 10
49.382268
 20
271.535739
 30
0.0
 0
VERTEX
 8
0
 10
49.382268
 20
269.905982
 30
0.0
 0
VERTEX
 8
0
 10
51.389775
 20
269.905982
 30
0.0
 0
VERTEX
 8
0
 10
51.812291
 20
269.920966
 30
0.0
 0
VERTEX
 8
0
 10
52.212285
 20
269.963477
 30
0.0
 0
VERTEX
 8
0
 10
52.587285
 20
270.030982
 30
0.0
 0
VERTEX
 8
0
 10
52.939763
 20
270.125952
 30
0.0
 0
VERTEX
 8
0
 10
53.269780
 20
270.245978
 30
0.0
 0
VERTEX
 8
0
 10
53.572270
 20
270.385962
 30
0.0
 0
VERTEX
 8
0
 10
53.847264
 20
270.550971
 30
0.0
 0
VERTEX
 8
0
 10
54.097264
 20
270.735968
 30
0.0
 0
VERTEX
 8
0
 10
54.322270
 20
270.938452
 30
0.0
 0
VERTEX
 8
0
 10
54.517277
 20
271.160956
 30
0.0
 0
VERTEX
 8
0
 10
54.684788
 20
271.398474
 30
0.0
 0
VERTEX
 8
0
 10
54.822270
 20
271.653479
 30
0.0
 0
VERTEX
 8
0
 10
54.929783
 20
271.920966
 30
0.0
 0
VERTEX
 8
0
 10
55.009770
 20
272.203467
 30
0.0
 0
VERTEX
 8
0
 10
55.057286
 20
272.495978
 30
0.0
 0
VERTEX
 8
0
 10
55.072270
 20
272.800971
 30
0.0
 0
VERTEX
 8
0
 10
55.054783
 20
273.158454
 30
0.0
 0
VERTEX
 8
0
 10
55.004765
 20
273.490973
 30
0.0
 0
VERTEX
 8
0
 10
54.919774
 20
273.795966
 30
0.0
 0
VERTEX
 8
0
 10
54.802281
 20
274.073462
 30
0.0
 0
VERTEX
 8
0
 10
54.657261
 20
274.328467
 30
0.0
 0
VERTEX
 8
0
 10
54.479771
 20
274.555976
 30
0.0
 0
VERTEX
 8
0
 10
54.274785
 20
274.760962
 30
0.0
 0
VERTEX
 8
0
 10
54.044774
 20
274.940955
 30
0.0
 0
VERTEX
 8
0
 10
53.784764
 20
275.098456
 30
0.0
 0
VERTEX
 8
0
 10
53.502263
 20
275.233466
 30
0.0
 0
VERTEX
 8
0
 10
53.194768
 20
275.345954
 30
0.0
 0
VERTEX
 8
0
 10
52.864781
 20
275.438452
 30
0.0
 0
VERTEX
 8
0
 10
52.512272
 20
275.508460
 30
0.0
 0
VERTEX
 8
0
 10
52.139775
 20
275.555976
 30
0.0
 0
VERTEX
 8
0
 10
51.747288
 20
275.585974
 30
0.0
 0
VERTEX
 8
0
 10
51.337285
 20
275.595954
 30
0.0
 0
VERTEX
 8
0
 10
50.977269
 20
275.593451
 30
0.0
 0
VERTEX
 8
0
 10
50.652287
 20
275.583472
 30
0.0
 0
VERTEX
 8
0
 10
50.367283
 20
275.568457
 30
0.0
 0
VERTEX
 8
0
 10
50.112279
 20
275.548468
 30
0.0
 0
VERTEX
 8
0
 10
49.889775
 20
275.525977
 30
0.0
 0
VERTEX
 8
0
 10
49.694768
 20
275.500952
 30
0.0
 0
VERTEX
 8
0
 10
49.527287
 20
275.473456
 30
0.0
 0
VERTEX
 8
0
 10
49.382268
 20
275.443457
 30
0.0
 0
VERTEX
 8
0
 10
49.382268
 20
274.035740
 30
0.0
 0
SEQEND
 8
0
 0
LINE
 8
0
 62
256
10
 47.172276
20
 271.533738
11
 49.382268
21
 271.535739
 0
LINE
 8
0
 62
256
10
 47.172276
20
 274.033739
11
 49.382268
21
 274.035740
 0
POLYLINE
 8
0
 62
7
 66
 1
 10
0.0
 20
0.0
 30
0.0
 0
VERTEX
 8
0
 10
47.172276
 20
274.033739
 30
0.0
 0
VERTEX
 8
0
 10
47.172276
 20
276.915961
 30
0.0
 0
VERTEX
 8
0
 10
47.559788
 20
276.998481
 30
0.0
 0
VERTEX
 8
0
 10
47.997288
 20
277.073462
 30
0.0
 0
VERTEX
 8
0
 10
48.472264
 20
277.138465
 30
0.0
 0
VERTEX
 8
0
 10
48.982274
 20
277.193457
 30
0.0
 0
VERTEX
 8
0
 10
49.517277
 20
277.238471
 30
0.0
 0
VERTEX
 8
0
 10
50.072270
 20
277.270972
 30
0.0
 0
VERTEX
 8
0
 10
51.212285
 20
277.298468
 30
0.0
 0
VERTEX
 8
0
 10
51.617283
 20
277.293463
 30
0.0
 0
VERTEX
 8
0
 10
52.004765
 20
277.280951
 30
0.0
 0
VERTEX
 8
0
 10
52.374791
 20
277.258460
 30
0.0
 0
VERTEX
 8
0
 10
52.727269
 20
277.225959
 30
0.0
 0
VERTEX
 8
0
 10
53.064763
 20
277.183478
 30
0.0
 0
VERTEX
 8
0
 10
53.387272
 20
277.130957
 30
0.0
 0
VERTEX
 8
0
 10
53.987279
 20
276.998481
 30
0.0
 0
VERTEX
 8
0
 10
54.532261
 20
276.825965
 30
0.0
 0
VERTEX
 8
0
 10
55.027287
 20
276.610968
 30
0.0
 0
VERTEX
 8
0
 10
55.477269
 20
276.353461
 30
0.0
 0
VERTEX
 8
0
 10
55.884770
 20
276.053473
 30
0.0
 0
VERTEX
 8
0
 10
56.202275
 20
275.788459
 30
0.0
 0
VERTEX
 8
0
 10
56.487279
 20
275.490973
 30
0.0
 0
VERTEX
 8
0
 10
56.734776
 20
275.160956
 30
0.0
 0
VERTEX
 8
0
 10
56.942265
 20
274.798468
 30
0.0
 0
VERTEX
 8
0
 10
57.109776
 20
274.403479
 30
0.0
 0
VERTEX
 8
0
 10
57.232274
 20
273.978461
 30
0.0
 0
VERTEX
 8
0
 10
57.309788
 20
273.520972
 30
0.0
 0
VERTEX
 8
0
 10
57.334782
 20
273.030982
 30
0.0
 0
VERTEX
 8
0
 10
57.322270
 20
272.718482
 30
0.0
 0
VERTEX
 8
0
 10
57.282261
 20
272.413459
 30
0.0
 0
VERTEX
 8
0
 10
57.219761
 20
272.115973
 30
0.0
 0
VERTEX
 8
0
 10
57.132268
 20
271.825965
 30
0.0
 0
VERTEX
 8
0
 10
57.022282
 20
271.543463
 30
0.0
 0
VERTEX
 8
0
 10
56.887272
 20
271.270972
 30
0.0
 0
VERTEX
 8
0
 10
56.732274
 20
271.010962
 30
0.0
 0
VERTEX
 8
0
 10
56.554783
 20
270.760962
 30
0.0
 0
VERTEX
 8
0
 10
56.354771
 20
270.520972
 30
0.0
 0
VERTEX
 8
0
 10
56.137272
 20
270.298468
 30
0.0
 0
VERTEX
 8
0
 10
55.897282
 20
270.085974
 30
0.0
 0
VERTEX
 8
0
 10
55.639775
 20
269.890967
 30
0.0
 0
VERTEX
 8
0
 10
55.364781
 20
269.710974
 30
0.0
 0
VERTEX
 8
0
 10
55.072270
 20
269.545966
 30
0.0
 0
VERTEX
 8
0
 10
54.762272
 20
269.398474
 30
0.0
 0
VERTEX
 8
0
 10
54.437291
 20
269.270972
 30
0.0
 0
VERTEX
 8
0
 10
54.437291
 20
269.193457
 30
0.0
 0
VERTEX
 8
0
 10
54.744786
 20
269.110968
 30
0.0
 0
VERTEX
 8
0
 10
55.057286
 20
269.005957
 30
0.0
 0
VERTEX
 8
0
 10
55.367283
 20
268.875952
 30
0.0
 0
VERTEX
 8
0
 10
55.674779
 20
268.723456
 30
0.0
 0
VERTEX
 8
0
 10
55.977269
 20
268.545966
 30
0.0
 0
VERTEX
 8
0
 10
56.269780
 20
268.345954
 30
0.0
 0
VERTEX
 8
0
 10
56.549779
 20
268.120978
 30
0.0
 0
VERTEX
 8
0
 10
56.814763
 20
267.868476
 30
0.0
 0
VERTEX
 8
0
 10
57.059788
 20
267.593482
 30
0.0
 0
VERTEX
 8
0
 10
57.282261
 20
267.293463
 30
0.0
 0
VERTEX
 8
0
 10
57.477269
 20
266.963477
 30
0.0
 0
VERTEX
 8
0
 10
57.647282
 20
266.610968
 30
0.0
 0
VERTEX
 8
0
 10
57.782261
 20
266.230963
 30
0.0
 0
VERTEX
 8
0
 10
57.884770
 20
265.823462
 30
0.0
 0
VERTEX
 8
0
 10
57.947270
 20
265.388465
 30
0.0
 0
VERTEX
 8
0
 10
57.969761
 20
264.925971
 30
0.0
 0
VERTEX
 8
0
 10
57.942265
 20
264.388465
 30
0.0
 0
VERTEX
 8
0
 10
57.864781
 20
263.883460
 30
0.0
 0
VERTEX
 8
0
 10
57.737279
 20
263.408454
 30
0.0
 0
VERTEX
 8
0
 10
57.564763
 20
262.965979
 30
0.0
 0
VERTEX
 8
0
 10
57.352269
 20
262.550971
 30
0.0
 0
VERTEX
 8
0
 10
57.099766
 20
262.170966
 30
0.0
 0
VERTEX
 8
0
 10
56.814763
 20
261.818457
 30
0.0
 0
VERTEX
 8
0
 10
56.494786
 20
261.498481
 30
0.0
 0
VERTEX
 8
0
 10
56.267277
 20
261.300971
 30
0.0
 0
VERTEX
 8
0
 10
56.019780
 20
261.115973
 30
0.0
 0
VERTEX
 8
0
 10
55.757268
 20
260.945960
 30
0.0
 0
VERTEX
 8
0
 10
55.474766
 20
260.785956
 30
0.0
 0
VERTEX
 8
0
 10
55.172276
 20
260.643470
 30
0.0
 0
VERTEX
 8
0
 10
54.854771
 20
260.510962
 30
0.0
 0
VERTEX
 8
0
 10
54.514775
 20
260.393470
 30
0.0
 0
VERTEX
 8
0
 10
54.157261
 20
260.288459
 30
0.0
 0
VERTEX
 8
0
 10
53.782261
 20
260.195960
 30
0.0
 0
VERTEX
 8
0
 10
53.387272
 20
260.115973
 30
0.0
 0
VERTEX
 8
0
 10
52.972264
 20
260.048468
 30
0.0
 0
VERTEX
 8
0
 10
52.537266
 20
259.993476
 30
0.0
 0
VERTEX
 8
0
 10
52.082280
 20
259.950965
 30
0.0
 0
VERTEX
 8
0
 10
51.609776
 20
259.920966
 30
0.0
 0
VERTEX
 8
0
 10
51.114781
 20
259.900977
 30
0.0
 0
VERTEX
 8
0
 10
50.602269
 20
259.895972
 30
0.0
 0
VERTEX
 8
0
 10
50.047276
 20
259.900977
 30
0.0
 0
VERTEX
 8
0
 10
49.527287
 20
259.913459
 30
0.0
 0
VERTEX
 8
0
 10
49.042271
 20
259.933478
 30
0.0
 0
VERTEX
 8
0
 10
48.592290
 20
259.960974
 30
0.0
 0
VERTEX
 8
0
 10
48.179783
 20
259.990973
 30
0.0
 0
VERTEX
 8
0
 10
47.804783
 20
260.025977
 30
0.0
 0
VERTEX
 8
0
 10
47.469761
 20
260.063452
 30
0.0
 0
VERTEX
 8
0
 10
47.172276
 20
260.100959
 30
0.0
 0
VERTEX
 8
0
 10
47.172276
 20
263.627453
 30
0.0
 0
SEQEND
 8
0
 0
POLYLINE
 8
0
 62
7
 66
 1
 10
0.0
 20
0.0
 30
0.0
 0
VERTEX
 8
0
 10
47.172276
 20
266.127454
 30
0.0
 0
VERTEX
 8
0
 10
47.172276
 20
271.533738
 30
0.0
 0
SEQEND
 8
0
 0
POLYLINE
 8
0
 62
7
 66
 1
 10
0.0
 20
0.0
 30
0.0
 0
VERTEX
 8
0
 10
49.382268
 20
263.629454
 30
0.0
 0
VERTEX
 8
0
 10
49.382268
 20
261.725959
 30
0.0
 0
VERTEX
 8
0
 10
49.754765
 20
261.678473
 30
0.0
 0
VERTEX
 8
0
 10
49.962285
 20
261.660956
 30
0.0
 0
VERTEX
 8
0
 10
50.184788
 20
261.648474
 30
0.0
 0
VERTEX
 8
0
 10
50.424779
 20
261.638465
 30
0.0
 0
VERTEX
 8
0
 10
50.679783
 20
261.630957
 30
0.0
 0
VERTEX
 8
0
 10
50.949772
 20
261.625952
 30
0.0
 0
VERTEX
 8
0
 10
51.237279
 20
261.625952
 30
0.0
 0
VERTEX
 8
0
 10
51.662266
 20
261.635962
 30
0.0
 0
VERTEX
 8
0
 10
52.082280
 20
261.665961
 30
0.0
 0
VERTEX
 8
0
 10
52.492283
 20
261.718482
 30
0.0
 0
VERTEX
 8
0
 10
52.887272
 20
261.795966
 30
0.0
 0
VERTEX
 8
0
 10
53.269780
 20
261.895972
 30
0.0
 0
VERTEX
 8
0
 10
53.632268
 20
262.023474
 30
0.0
 0
VERTEX
 8
0
 10
53.974766
 20
262.175971
 30
0.0
 0
VERTEX
 8
0
 10
54.292271
 20
262.355963
 30
0.0
 0
VERTEX
 8
0
 10
54.582280
 20
262.565955
 30
0.0
 0
VERTEX
 8
0
 10
54.844761
 20
262.805976
 30
0.0
 0
VERTEX
 8
0
 10
55.072270
 20
263.078467
 30
0.0
 0
VERTEX
 8
0
 10
55.267277
 20
263.383460
 30
0.0
 0
VERTEX
 8
0
 10
55.422276
 20
263.720954
 30
0.0
 0
VERTEX
 8
0
 10
55.537266
 20
264.095954
 30
0.0
 0
VERTEX
 8
0
 10
55.607274
 20
264.505957
 30
0.0
 0
VERTEX
 8
0
 10
55.632268
 20
264.953467
 30
0.0
 0
VERTEX
 8
0
 10
55.609776
 20
265.370978
 30
0.0
 0
VERTEX
 8
0
 10
55.542271
 20
265.758460
 30
0.0
 0
VERTEX
 8
0
 10
55.432286
 20
266.115973
 30
0.0
 0
VERTEX
 8
0
 10
55.279790
 20
266.443457
 30
0.0
 0
VERTEX
 8
0
 10
55.092290
 20
266.743476
 30
0.0
 0
VERTEX
 8
0
 10
54.869786
 20
267.013465
 30
0.0
 0
VERTEX
 8
0
 10
54.614781
 20
267.255957
 30
0.0
 0
VERTEX
 8
0
 10
54.327275
 20
267.470954
 30
0.0
 0
VERTEX
 8
0
 10
54.012272
 20
267.658454
 30
0.0
 0
VERTEX
 8
0
 10
53.669774
 20
267.818457
 30
0.0
 0
VERTEX
 8
0
 10
53.307286
 20
267.953467
 30
0.0
 0
VERTEX
 8
0
 10
52.919774
 20
268.063452
 30
0.0
 0
VERTEX
 8
0
 10
52.514775
 20
268.145972
 30
0.0
 0
VERTEX
 8
0
 10
52.094761
 20
268.205970
 30
0.0
 0
VERTEX
 8
0
 10
51.659764
 20
268.240973
 30
0.0
 0
VERTEX
 8
0
 10
51.212285
 20
268.253455
 30
0.0
 0
VERTEX
 8
0
 10
49.382268
 20
268.253455
 30
0.0
 0
VERTEX
 8
0
 10
49.382268
 20
266.129455
 30
0.0
 0
SEQEND
 8
0
 0
LINE
 8
0
 62
256
10
 47.172276
20
 263.627453
11
 49.382268
21
 263.629454
 0
LINE
 8
0
 62
256
10
 47.172276
20
 266.127454
11
 49.382268
21
 266.129455
 0
POLYLINE
 8
0
 62
7
 66
 1
 10
0.0
 20
0.0
 30
0.0
 0
VERTEX
 8
0
 10
85.603645
 20
267.150977
 30
0.0
 0
VERTEX
 8
0
 10
86.927281
 20
267.150977
 30
0.0
 0
VERTEX
 8
0
 10
85.224766
 20
272.078467
 30
0.0
 0
VERTEX
 8
0
 10
84.962285
 20
272.898474
 30
0.0
 0
VERTEX
 8
0
 10
84.732274
 20
273.688452
 30
0.0
 0
VERTEX
 8
0
 10
84.527287
 20
274.453467
 30
0.0
 0
VERTEX
 8
0
 10
84.334782
 20
275.200965
 30
0.0
 0
VERTEX
 8
0
 10
84.284764
 20
275.200965
 30
0.0
 0
VERTEX
 8
0
 10
84.092290
 20
274.445960
 30
0.0
 0
VERTEX
 8
0
 10
83.889775
 20
273.670966
 30
0.0
 0
VERTEX
 8
0
 10
83.669774
 20
272.885962
 30
0.0
 0
VERTEX
 8
0
 10
83.422276
 20
272.103461
 30
0.0
 0
VERTEX
 8
0
 10
81.744786
 20
267.150977
 30
0.0
 0
VERTEX
 8
0
 10
83.103644
 20
267.150977
 30
0.0
 0
SEQEND
 8
0
 0
POLYLINE
 8
0
 62
7
 66
 1
 10
0.0
 20
0.0
 30
0.0
 0
VERTEX
 8
0
 10
83.105207
 20
265.423468
 30
0.0
 0
VERTEX
 8
0
 10
81.287266
 20
265.423468
 30
0.0
 0
VERTEX
 8
0
 10
79.509770
 20
260.035956
 30
0.0
 0
VERTEX
 8
0
 10
77.222264
 20
260.035956
 30
0.0
 0
VERTEX
 8
0
 10
83.064763
 20
277.158454
 30
0.0
 0
VERTEX
 8
0
 10
85.707280
 20
277.158454
 30
0.0
 0
VERTEX
 8
0
 10
91.549779
 20
260.035956
 30
0.0
 0
VERTEX
 8
0
 10
89.187291
 20
260.035956
 30
0.0
 0
VERTEX
 8
0
 10
87.359776
 20
265.423468
 30
0.0
 0
VERTEX
 8
0
 10
85.605209
 20
265.423468
 30
0.0
 0
SEQEND
 8
0
 0
LINE
 8
0
 62
256
10
 83.103644
20
 267.150977
11
 83.105207
21
 265.423468
 0
LINE
 8
0
 62
256
10
 85.603645
20
 267.150977
11
 85.605209
21
 265.423468
 0
POLYLINE
 8
0
 62
7
 66
 1
 10
0.0
 20
0.0
 30
0.0
 0
VERTEX
 8
0
 10
117.293440
 20
232.385978
 30
0.0
 0
VERTEX
 8
0
 10
118.734761
 20
232.385978
 30
0.0
 0
VERTEX
 8
0
 10
117.032261
 20
237.313468
 30
0.0
 0
VERTEX
 8
0
 10
116.769765
 20
238.133475
 30
0.0
 0
VERTEX
 8
0
 10
116.539769
 20
238.923468
 30
0.0
 0
VERTEX
 8
0
 10
116.337269
 20
239.688468
 30
0.0
 0
VERTEX
 8
0
 10
116.144765
 20
240.438468
 30
0.0
 0
VERTEX
 8
0
 10
116.092274
 20
240.438468
 30
0.0
 0
VERTEX
 8
0
 10
115.899769
 20
239.683478
 30
0.0
 0
VERTEX
 8
0
 10
115.699772
 20
238.908469
 30
0.0
 0
VERTEX
 8
0
 10
115.479771
 20
238.123481
 30
0.0
 0
VERTEX
 8
0
 10
115.229771
 20
237.338477
 30
0.0
 0
VERTEX
 8
0
 10
113.552266
 20
232.385978
 30
0.0
 0
VERTEX
 8
0
 10
114.793439
 20
232.385978
 30
0.0
 0
SEQEND
 8
0
 0
POLYLINE
 8
0
 62
7
 66
 1
 10
0.0
 20
0.0
 30
0.0
 0
VERTEX
 8
0
 10
114.795002
 20
230.658469
 30
0.0
 0
VERTEX
 8
0
 10
113.094761
 20
230.658469
 30
0.0
 0
VERTEX
 8
0
 10
111.317265
 20
225.273474
 30
0.0
 0
VERTEX
 8
0
 10
109.029790
 20
225.273474
 30
0.0
 0
VERTEX
 8
0
 10
114.874760
 20
242.393470
 30
0.0
 0
VERTEX
 8
0
 10
117.514775
 20
242.393470
 30
0.0
 0
VERTEX
 8
0
 10
123.357274
 20
225.273474
 30
0.0
 0
VERTEX
 8
0
 10
120.994771
 20
225.273474
 30
0.0
 0
VERTEX
 8
0
 10
119.164769
 20
230.658469
 30
0.0
 0
VERTEX
 8
0
 10
117.295003
 20
230.658469
 30
0.0
 0
SEQEND
 8
0
 0
LINE
 8
0
 62
256
10
 114.793439
20
 232.385978
11
 114.795002
21
 230.658469
 0
LINE
 8
0
 62
256
10
 117.293440
20
 232.385978
11
 117.295003
21
 230.658469
 0
POLYLINE
 8
0
 62
7
 66
 1
 10
0.0
 20
0.0
 30
0.0
 0
VERTEX
 8
0
 10
-50.110225
 20
199.450697
 30
0.0
 0
VERTEX
 8
0
 10
-50.110225
 20
206.863471
 30
0.0
 0
VERTEX
 8
0
 10
-49.592708
 20
206.945975
 30
0.0
 0
VERTEX
 8
0
 10
-49.052730
 20
207.020972
 30
0.0
 0
VERTEX
 8
0
 10
-48.492732
 20
207.085974
 30
0.0
 0
VERTEX
 8
0
 10
-47.912715
 20
207.140982
 30
0.0
 0
VERTEX
 8
0
 10
-47.312709
 20
207.185981
 30
0.0
 0
VERTEX
 8
0
 10
-46.695217
 20
207.218482
 30
0.0
 0
VERTEX
 8
0
 10
-46.060207
 20
207.238471
 30
0.0
 0
VERTEX
 8
0
 10
-45.410213
 20
207.245978
 30
0.0
 0
VERTEX
 8
0
 10
-44.825221
 20
207.235968
 30
0.0
 0
VERTEX
 8
0
 10
-44.262721
 20
207.210974
 30
0.0
 0
VERTEX
 8
0
 10
-43.720210
 20
207.165976
 30
0.0
 0
VERTEX
 8
0
 10
-43.197719
 20
207.105979
 30
0.0
 0
VERTEX
 8
0
 10
-42.697719
 20
207.028479
 30
0.0
 0
VERTEX
 8
0
 10
-42.215236
 20
206.933478
 30
0.0
 0
VERTEX
 8
0
 10
-41.755214
 20
206.820975
 30
0.0
 0
VERTEX
 8
0
 10
-41.312709
 20
206.693473
 30
0.0
 0
VERTEX
 8
0
 10
-40.892726
 20
206.548468
 30
0.0
 0
VERTEX
 8
0
 10
-40.490230
 20
206.388480
 30
0.0
 0
VERTEX
 8
0
 10
-40.107723
 20
206.213477
 30
0.0
 0
VERTEX
 8
0
 10
-39.745235
 20
206.023474
 30
0.0
 0
VERTEX
 8
0
 10
-39.400234
 20
205.818473
 30
0.0
 0
VERTEX
 8
0
 10
-39.072719
 20
205.595969
 30
0.0
 0
VERTEX
 8
0
 10
-38.765224
 20
205.360968
 30
0.0
 0
VERTEX
 8
0
 10
-38.475215
 20
205.110968
 30
0.0
 0
VERTEX
 8
0
 10
-38.192714
 20
204.843482
 30
0.0
 0
VERTEX
 8
0
 10
-37.925228
 20
204.560981
 30
0.0
 0
VERTEX
 8
0
 10
-37.675228
 20
204.263480
 30
0.0
 0
VERTEX
 8
0
 10
-37.440212
 20
203.950980
 30
0.0
 0
VERTEX
 8
0
 10
-37.222713
 20
203.625983
 30
0.0
 0
VERTEX
 8
0
 10
-37.022731
 20
203.283469
 30
0.0
 0
VERTEX
 8
0
 10
-36.840236
 20
202.925971
 30
0.0
 0
VERTEX
 8
0
 10
-36.675228
 20
202.553473
 30
0.0
 0
VERTEX
 8
0
 10
-36.527736
 20
202.163474
 30
0.0
 0
VERTEX
 8
0
 10
-36.400234
 20
201.758475
 30
0.0
 0
VERTEX
 8
0
 10
-36.290218
 20
201.335974
 30
0.0
 0
VERTEX
 8
0
 10
-36.200221
 20
200.895972
 30
0.0
 0
VERTEX
 8
0
 10
-36.130214
 20
200.440970
 30
0.0
 0
VERTEX
 8
0
 10
-36.077724
 20
199.965979
 30
0.0
 0
VERTEX
 8
0
 10
-36.047725
 20
199.473471
 30
0.0
 0
VERTEX
 8
0
 10
-36.037715
 20
198.963477
 30
0.0
 0
VERTEX
 8
0
 10
-36.047725
 20
198.445975
 30
0.0
 0
VERTEX
 8
0
 10
-36.077724
 20
197.940970
 30
0.0
 0
VERTEX
 8
0
 10
-36.130214
 20
197.448478
 30
0.0
 0
VERTEX
 8
0
 10
-36.200221
 20
196.965979
 30
0.0
 0
VERTEX
 8
0
 10
-36.292720
 20
196.500983
 30
0.0
 0
VERTEX
 8
0
 10
-36.402736
 20
196.045981
 30
0.0
 0
VERTEX
 8
0
 10
-36.530208
 20
195.605979
 30
0.0
 0
VERTEX
 8
0
 10
-36.677730
 20
195.178473
 30
0.0
 0
VERTEX
 8
0
 10
-36.845210
 20
194.768470
 30
0.0
 0
VERTEX
 8
0
 10
-37.027736
 20
194.370978
 30
0.0
 0
VERTEX
 8
0
 10
-37.230220
 20
193.988471
 30
0.0
 0
VERTEX
 8
0
 10
-37.450221
 20
193.620978
 30
0.0
 0
VERTEX
 8
0
 10
-37.687709
 20
193.268470
 30
0.0
 0
VERTEX
 8
0
 10
-37.942714
 20
192.930976
 30
0.0
 0
VERTEX
 8
0
 10
-38.212734
 20
192.610968
 30
0.0
 0
VERTEX
 8
0
 10
-38.500209
 20
192.308478
 30
0.0
 0
VERTEX
 8
0
 10
-38.817714
 20
192.015982
 30
0.0
 0
VERTEX
 8
0
 10
-39.157710
 20
191.743476
 30
0.0
 0
VERTEX
 8
0
 10
-39.520229
 20
191.485984
 30
0.0
 0
VERTEX
 8
0
 10
-39.905208
 20
191.248481
 30
0.0
 0
VERTEX
 8
0
 10
-40.312709
 20
191.028479
 30
0.0
 0
VERTEX
 8
0
 10
-40.740230
 20
190.825980
 30
0.0
 0
VERTEX
 8
0
 10
-41.190212
 20
190.643470
 30
0.0
 0
VERTEX
 8
0
 10
-41.660213
 20
190.475974
 30
0.0
 0
VERTEX
 8
0
 10
-42.150234
 20
190.330970
 30
0.0
 0
VERTEX
 8
0
 10
-42.657710
 20
190.203482
 30
0.0
 0
VERTEX
 8
0
 10
-43.187709
 20
190.095969
 30
0.0
 0
VERTEX
 8
0
 10
-43.732723
 20
190.005973
 30
0.0
 0
VERTEX
 8
0
 10
-44.297725
 20
189.935981
 30
0.0
 0
VERTEX
 8
0
 10
-44.880214
 20
189.885978
 30
0.0
 0
VERTEX
 8
0
 10
-45.480220
 20
189.855979
 30
0.0
 0
VERTEX
 8
0
 10
-46.095210
 20
189.845969
 30
0.0
 0
VERTEX
 8
0
 10
-46.680232
 20
189.848471
 30
0.0
 0
VERTEX
 8
0
 10
-47.240230
 20
189.858481
 30
0.0
 0
VERTEX
 8
0
 10
-47.775234
 20
189.875983
 30
0.0
 0
VERTEX
 8
0
 10
-48.282710
 20
189.898474
 30
0.0
 0
VERTEX
 8
0
 10
-48.770229
 20
189.928473
 30
0.0
 0
VERTEX
 8
0
 10
-49.235225
 20
189.963477
 30
0.0
 0
VERTEX
 8
0
 10
-49.682735
 20
190.003470
 30
0.0
 0
VERTEX
 8
0
 10
-50.110225
 20
190.048484
 30
0.0
 0
VERTEX
 8
0
 10
-50.110225
 20
196.950696
 30
0.0
 0
SEQEND
 8
0
 0
POLYLINE
 8
0
 62
7
 66
 1
 10
0.0
 20
0.0
 30
0.0
 0
VERTEX
 8
0
 10
-47.900234
 20
196.952697
 30
0.0
 0
VERTEX
 8
0
 10
-47.900234
 20
191.723471
 30
0.0
 0
VERTEX
 8
0
 10
-47.677730
 20
191.698478
 30
0.0
 0
VERTEX
 8
0
 10
-47.435207
 20
191.675971
 30
0.0
 0
VERTEX
 8
0
 10
-47.175228
 20
191.658469
 30
0.0
 0
VERTEX
 8
0
 10
-46.895229
 20
191.645972
 30
0.0
 0
VERTEX
 8
0
 10
-46.297725
 20
191.628470
 30
0.0
 0
VERTEX
 8
0
 10
-45.662715
 20
191.623481
 30
0.0
 0
VERTEX
 8
0
 10
-45.222713
 20
191.630973
 30
0.0
 0
VERTEX
 8
0
 10
-44.797725
 20
191.653479
 30
0.0
 0
VERTEX
 8
0
 10
-44.385219
 20
191.693473
 30
0.0
 0
VERTEX
 8
0
 10
-43.985225
 20
191.745978
 30
0.0
 0
VERTEX
 8
0
 10
-43.225215
 20
191.898474
 30
0.0
 0
VERTEX
 8
0
 10
-42.520229
 20
192.108481
 30
0.0
 0
VERTEX
 8
0
 10
-41.867732
 20
192.375983
 30
0.0
 0
VERTEX
 8
0
 10
-41.267726
 20
192.703482
 30
0.0
 0
VERTEX
 8
0
 10
-40.725215
 20
193.083472
 30
0.0
 0
VERTEX
 8
0
 10
-40.235225
 20
193.520972
 30
0.0
 0
VERTEX
 8
0
 10
-39.802730
 20
194.013480
 30
0.0
 0
VERTEX
 8
0
 10
-39.427730
 20
194.558478
 30
0.0
 0
VERTEX
 8
0
 10
-39.107723
 20
195.153479
 30
0.0
 0
VERTEX
 8
0
 10
-38.842708
 20
195.800971
 30
0.0
 0
VERTEX
 8
0
 10
-38.637721
 20
196.500983
 30
0.0
 0
VERTEX
 8
0
 10
-38.490230
 20
197.248481
 30
0.0
 0
VERTEX
 8
0
 10
-38.402736
 20
198.043479
 30
0.0
 0
VERTEX
 8
0
 10
-38.372707
 20
198.888480
 30
0.0
 0
VERTEX
 8
0
 10
-38.395229
 20
199.628470
 30
0.0
 0
VERTEX
 8
0
 10
-38.472713
 20
200.330970
 30
0.0
 0
VERTEX
 8
0
 10
-38.602718
 20
200.998481
 30
0.0
 0
VERTEX
 8
0
 10
-38.787715
 20
201.623481
 30
0.0
 0
VERTEX
 8
0
 10
-39.030208
 20
202.208472
 30
0.0
 0
VERTEX
 8
0
 10
-39.325221
 20
202.753470
 30
0.0
 0
VERTEX
 8
0
 10
-39.672725
 20
203.250983
 30
0.0
 0
VERTEX
 8
0
 10
-40.077724
 20
203.705970
 30
0.0
 0
VERTEX
 8
0
 10
-40.537715
 20
204.110968
 30
0.0
 0
VERTEX
 8
0
 10
-41.052730
 20
204.468482
 30
0.0
 0
VERTEX
 8
0
 10
-41.622707
 20
204.775977
 30
0.0
 0
VERTEX
 8
0
 10
-42.250209
 20
205.028479
 30
0.0
 0
VERTEX
 8
0
 10
-42.930232
 20
205.230979
 30
0.0
 0
VERTEX
 8
0
 10
-43.667720
 20
205.375983
 30
0.0
 0
VERTEX
 8
0
 10
-44.460231
 20
205.463477
 30
0.0
 0
VERTEX
 8
0
 10
-44.877712
 20
205.485968
 30
0.0
 0
VERTEX
 8
0
 10
-45.307735
 20
205.493476
 30
0.0
 0
VERTEX
 8
0
 10
-45.722713
 20
205.488471
 30
0.0
 0
VERTEX
 8
0
 10
-46.112728
 20
205.475974
 30
0.0
 0
VERTEX
 8
0
 10
-46.477718
 20
205.453482
 30
0.0
 0
VERTEX
 8
0
 10
-46.815212
 20
205.425971
 30
0.0
 0
VERTEX
 8
0
 10
-47.125209
 20
205.393470
 30
0.0
 0
VERTEX
 8
0
 10
-47.410213
 20
205.353476
 30
0.0
 0
VERTEX
 8
0
 10
-47.667720
 20
205.310981
 30
0.0
 0
VERTEX
 8
0
 10
-47.900234
 20
205.263480
 30
0.0
 0
VERTEX
 8
0
 10
-47.900234
 20
199.452698
 30
0.0
 0
SEQEND
 8
0
 0
LINE
 8
0
 62
256
10
 -50.110225
20
 199.450697
11
 -47.900234
21
 199.452698
 0
LINE
 8
0
 62
256
10
 -50.110225
20
 196.950696
11
 -47.900234
21
 196.952697
 0
POLYLINE
 8
0
 62
7
 66
 1
 10
0.0
 20
0.0
 30
0.0
 0
VERTEX
 8
0
 10
-16.800228
 20
202.868606
 30
0.0
 0
VERTEX
 8
0
 10
-16.800228
 20
206.813483
 30
0.0
 0
VERTEX
 8
0
 10
-16.357723
 20
206.885978
 30
0.0
 0
VERTEX
 8
0
 10
-15.877712
 20
206.953482
 30
0.0
 0
VERTEX
 8
0
 10
-15.362728
 20
207.015982
 30
0.0
 0
VERTEX
 8
0
 10
-14.822719
 20
207.065970
 30
0.0
 0
VERTEX
 8
0
 10
-14.265224
 20
207.108481
 30
0.0
 0
VERTEX
 8
0
 10
-13.695217
 20
207.140982
 30
0.0
 0
VERTEX
 8
0
 10
-12.557735
 20
207.168479
 30
0.0
 0
VERTEX
 8
0
 10
-12.125209
 20
207.163474
 30
0.0
 0
VERTEX
 8
0
 10
-11.710231
 20
207.145972
 30
0.0
 0
VERTEX
 8
0
 10
-11.312709
 20
207.120978
 30
0.0
 0
VERTEX
 8
0
 10
-10.932735
 20
207.083472
 30
0.0
 0
VERTEX
 8
0
 10
-10.572719
 20
207.033469
 30
0.0
 0
VERTEX
 8
0
 10
-10.227718
 20
206.973471
 30
0.0
 0
VERTEX
 8
0
 10
-9.897731
 20
206.903479
 30
0.0
 0
VERTEX
 8
0
 10
-9.587734
 20
206.820975
 30
0.0
 0
VERTEX
 8
0
 10
-9.290218
 20
206.730979
 30
0.0
 0
VERTEX
 8
0
 10
-9.007717
 20
206.625983
 30
0.0
 0
VERTEX
 8
0
 10
-8.487728
 20
206.385978
 30
0.0
 0
VERTEX
 8
0
 10
-8.020229
 20
206.100974
 30
0.0
 0
VERTEX
 8
0
 10
-7.605220
 20
205.770972
 30
0.0
 0
VERTEX
 8
0
 10
-7.307735
 20
205.465979
 30
0.0
 0
VERTEX
 8
0
 10
-7.042720
 20
205.125983
 30
0.0
 0
VERTEX
 8
0
 10
-6.812709
 20
204.753470
 30
0.0
 0
VERTEX
 8
0
 10
-6.617732
 20
204.350974
 30
0.0
 0
VERTEX
 8
0
 10
-6.465236
 20
203.920981
 30
0.0
 0
VERTEX
 8
0
 10
-6.352718
 20
203.468482
 30
0.0
 0
VERTEX
 8
0
 10
-6.282710
 20
202.990973
 30
0.0
 0
VERTEX
 8
0
 10
-6.260219
 20
202.495978
 30
0.0
 0
VERTEX
 8
0
 10
-6.277736
 20
202.085974
 30
0.0
 0
VERTEX
 8
0
 10
-6.325221
 20
201.693473
 30
0.0
 0
VERTEX
 8
0
 10
-6.402736
 20
201.318473
 30
0.0
 0
VERTEX
 8
0
 10
-6.510219
 20
200.960974
 30
0.0
 0
VERTEX
 8
0
 10
-6.642726
 20
200.620978
 30
0.0
 0
VERTEX
 8
0
 10
-6.802730
 20
200.300971
 30
0.0
 0
VERTEX
 8
0
 10
-6.987728
 20
199.998481
 30
0.0
 0
VERTEX
 8
0
 10
-7.192714
 20
199.713477
 30
0.0
 0
VERTEX
 8
0
 10
-7.420223
 20
199.448478
 30
0.0
 0
VERTEX
 8
0
 10
-7.665218
 20
199.203482
 30
0.0
 0
VERTEX
 8
0
 10
-7.930232
 20
198.978476
 30
0.0
 0
VERTEX
 8
0
 10
-8.210231
 20
198.773474
 30
0.0
 0
VERTEX
 8
0
 10
-8.502712
 20
198.585974
 30
0.0
 0
VERTEX
 8
0
 10
-8.812709
 20
198.420981
 30
0.0
 0
VERTEX
 8
0
 10
-9.130214
 20
198.275977
 30
0.0
 0
VERTEX
 8
0
 10
-9.460231
 20
198.150977
 30
0.0
 0
VERTEX
 8
0
 10
-9.460231
 20
198.075980
 30
0.0
 0
VERTEX
 8
0
 10
-9.222713
 20
197.980979
 30
0.0
 0
VERTEX
 8
0
 10
-8.997737
 20
197.868476
 30
0.0
 0
VERTEX
 8
0
 10
-8.785213
 20
197.738471
 30
0.0
 0
VERTEX
 8
0
 10
-8.582729
 20
197.593482
 30
0.0
 0
VERTEX
 8
0
 10
-8.390224
 20
197.430976
 30
0.0
 0
VERTEX
 8
0
 10
-8.210231
 20
197.250983
 30
0.0
 0
VERTEX
 8
0
 10
-8.040218
 20
197.055976
 30
0.0
 0
VERTEX
 8
0
 10
-7.882717
 20
196.843482
 30
0.0
 0
VERTEX
 8
0
 10
-7.732723
 20
196.615973
 30
0.0
 0
VERTEX
 8
0
 10
-7.595210
 20
196.373481
 30
0.0
 0
VERTEX
 8
0
 10
-7.350215
 20
195.845969
 30
0.0
 0
VERTEX
 8
0
 10
-7.140224
 20
195.260978
 30
0.0
 0
VERTEX
 8
0
 10
-6.970210
 20
194.620978
 30
0.0
 0
VERTEX
 8
0
 10
-6.867732
 20
194.180976
 30
0.0
 0
VERTEX
 8
0
 10
-6.767726
 20
193.760978
 30
0.0
 0
VERTEX
 8
0
 10
-6.672725
 20
193.358481
 30
0.0
 0
VERTEX
 8
0
 10
-6.577724
 20
192.970969
 30
0.0
 0
VERTEX
 8
0
 10
-6.487728
 20
192.605979
 30
0.0
 0
VERTEX
 8
0
 10
-6.400234
 20
192.258475
 30
0.0
 0
VERTEX
 8
0
 10
-6.315212
 20
191.930976
 30
0.0
 0
VERTEX
 8
0
 10
-6.235225
 20
191.623481
 30
0.0
 0
VERTEX
 8
0
 10
-6.155208
 20
191.335974
 30
0.0
 0
VERTEX
 8
0
 10
-6.077724
 20
191.068473
 30
0.0
 0
VERTEX
 8
0
 10
-6.000209
 20
190.823478
 30
0.0
 0
VERTEX
 8
0
 10
-5.927730
 20
190.598471
 30
0.0
 0
VERTEX
 8
0
 10
-5.855220
 20
190.395972
 30
0.0
 0
VERTEX
 8
0
 10
-5.785213
 20
190.213477
 30
0.0
 0
VERTEX
 8
0
 10
-5.717708
 20
190.055976
 30
0.0
 0
VERTEX
 8
0
 10
-5.650234
 20
189.920981
 30
0.0
 0
VERTEX
 8
0
 10
-7.935237
 20
189.920981
 30
0.0
 0
VERTEX
 8
0
 10
-7.987728
 20
190.025977
 30
0.0
 0
VERTEX
 8
0
 10
-8.045223
 20
190.155982
 30
0.0
 0
VERTEX
 8
0
 10
-8.102718
 20
190.303473
 30
0.0
 0
VERTEX
 8
0
 10
-8.162715
 20
190.473471
 30
0.0
 0
VERTEX
 8
0
 10
-8.225215
 20
190.663474
 30
0.0
 0
VERTEX
 8
0
 10
-8.290218
 20
190.875983
 30
0.0
 0
VERTEX
 8
0
 10
-8.357723
 20
191.105979
 30
0.0
 0
VERTEX
 8
0
 10
-8.427730
 20
191.355979
 30
0.0
 0
VERTEX
 8
0
 10
-8.497737
 20
191.623481
 30
0.0
 0
VERTEX
 8
0
 10
-8.572719
 20
191.913474
 30
0.0
 0
VERTEX
 8
0
 10
-8.647731
 20
192.218482
 30
0.0
 0
VERTEX
 8
0
 10
-8.725215
 20
192.543479
 30
0.0
 0
VERTEX
 8
0
 10
-8.802730
 20
192.883475
 30
0.0
 0
VERTEX
 8
0
 10
-8.885219
 20
193.243476
 30
0.0
 0
VERTEX
 8
0
 10
-8.967708
 20
193.618476
 30
0.0
 0
VERTEX
 8
0
 10
-9.052730
 20
194.010978
 30
0.0
 0
VERTEX
 8
0
 10
-9.152736
 20
194.435981
 30
0.0
 0
VERTEX
 8
0
 10
-9.265224
 20
194.828482
 30
0.0
 0
VERTEX
 8
0
 10
-9.387721
 20
195.188483
 30
0.0
 0
VERTEX
 8
0
 10
-9.525234
 20
195.515982
 30
0.0
 0
VERTEX
 8
0
 10
-9.675228
 20
195.813483
 30
0.0
 0
VERTEX
 8
0
 10
-9.840236
 20
196.080970
 30
0.0
 0
VERTEX
 8
0
 10
-10.020229
 20
196.320975
 30
0.0
 0
VERTEX
 8
0
 10
-10.217708
 20
196.530982
 30
0.0
 0
VERTEX
 8
0
 10
-10.432735
 20
196.715979
 30
0.0
 0
VERTEX
 8
0
 10
-10.665218
 20
196.873481
 30
0.0
 0
VERTEX
 8
0
 10
-10.920223
 20
197.008475
 30
0.0
 0
VERTEX
 8
0
 10
-11.192714
 20
197.118476
 30
0.0
 0
VERTEX
 8
0
 10
-11.487728
 20
197.205970
 30
0.0
 0
VERTEX
 8
0
 10
-11.802730
 20
197.270972
 30
0.0
 0
VERTEX
 8
0
 10
-12.142726
 20
197.313483
 30
0.0
 0
VERTEX
 8
0
 10
-12.507717
 20
197.338477
 30
0.0
 0
VERTEX
 8
0
 10
-14.590236
 20
197.338477
 30
0.0
 0
VERTEX
 8
0
 10
-14.590236
 20
189.920981
 30
0.0
 0
VERTEX
 8
0
 10
-16.800228
 20
189.920981
 30
0.0
 0
VERTEX
 8
0
 10
-16.800228
 20
200.368605
 30
0.0
 0
SEQEND
 8
0
 0
POLYLINE
 8
0
 62
7
 66
 1
 10
0.0
 20
0.0
 30
0.0
 0
VERTEX
 8
0
 10
-14.590236
 20
200.370606
 30
0.0
 0
VERTEX
 8
0
 10
-14.590236
 20
199.015982
 30
0.0
 0
VERTEX
 8
0
 10
-12.330226
 20
199.015982
 30
0.0
 0
VERTEX
 8
0
 10
-11.897731
 20
199.030982
 30
0.0
 0
VERTEX
 8
0
 10
-11.485225
 20
199.075980
 30
0.0
 0
VERTEX
 8
0
 10
-11.097713
 20
199.148474
 30
0.0
 0
VERTEX
 8
0
 10
-10.730220
 20
199.248481
 30
0.0
 0
VERTEX
 8
0
 10
-10.387721
 20
199.375983
 30
0.0
 0
VERTEX
 8
0
 10
-10.070217
 20
199.528479
 30
0.0
 0
VERTEX
 8
0
 10
-9.780208
 20
199.705970
 30
0.0
 0
VERTEX
 8
0
 10
-9.515224
 20
199.908469
 30
0.0
 0
VERTEX
 8
0
 10
-9.277736
 20
200.130973
 30
0.0
 0
VERTEX
 8
0
 10
-9.067714
 20
200.378470
 30
0.0
 0
VERTEX
 8
0
 10
-8.890224
 20
200.645972
 30
0.0
 0
VERTEX
 8
0
 10
-8.740230
 20
200.933478
 30
0.0
 0
VERTEX
 8
0
 10
-8.625209
 20
201.240973
 30
0.0
 0
VERTEX
 8
0
 10
-8.540218
 20
201.565970
 30
0.0
 0
VERTEX
 8
0
 10
-8.487728
 20
201.908469
 30
0.0
 0
VERTEX
 8
0
 10
-8.470210
 20
202.265982
 30
0.0
 0
VERTEX
 8
0
 10
-8.487728
 20
202.665976
 30
0.0
 0
VERTEX
 8
0
 10
-8.542720
 20
203.035971
 30
0.0
 0
VERTEX
 8
0
 10
-8.632717
 20
203.378470
 30
0.0
 0
VERTEX
 8
0
 10
-8.757717
 20
203.693473
 30
0.0
 0
VERTEX
 8
0
 10
-8.912715
 20
203.980979
 30
0.0
 0
VERTEX
 8
0
 10
-9.100215
 20
204.240973
 30
0.0
 0
VERTEX
 8
0
 10
-9.317714
 20
204.475974
 30
0.0
 0
VERTEX
 8
0
 10
-9.562709
 20
204.683478
 30
0.0
 0
VERTEX
 8
0
 10
-9.835231
 20
204.863471
 30
0.0
 0
VERTEX
 8
0
 10
-10.135219
 20
205.018470
 30
0.0
 0
VERTEX
 8
0
 10
-10.457729
 20
205.148474
 30
0.0
 0
VERTEX
 8
0
 10
-10.805232
 20
205.255973
 30
0.0
 0
VERTEX
 8
0
 10
-11.175228
 20
205.338477
 30
0.0
 0
VERTEX
 8
0
 10
-11.567714
 20
205.395972
 30
0.0
 0
VERTEX
 8
0
 10
-11.977718
 20
205.428473
 30
0.0
 0
VERTEX
 8
0
 10
-12.407710
 20
205.440970
 30
0.0
 0
VERTEX
 8
0
 10
-12.792720
 20
205.438483
 30
0.0
 0
VERTEX
 8
0
 10
-13.145229
 20
205.428473
 30
0.0
 0
VERTEX
 8
0
 10
-13.465236
 20
205.410971
 30
0.0
 0
VERTEX
 8
0
 10
-13.755214
 20
205.390982
 30
0.0
 0
VERTEX
 8
0
 10
-14.012721
 20
205.363471
 30
0.0
 0
VERTEX
 8
0
 10
-14.237728
 20
205.333472
 30
0.0
 0
VERTEX
 8
0
 10
-14.430232
 20
205.300971
 30
0.0
 0
VERTEX
 8
0
 10
-14.590236
 20
205.263480
 30
0.0
 0
VERTEX
 8
0
 10
-14.590236
 20
202.870607
 30
0.0
 0
SEQEND
 8
0
 0
LINE
 8
0
 62
256
10
 -16.800228
20
 202.868606
11
 -14.590236
21
 202.870607
 0
LINE
 8
0
 62
256
10
 -16.800228
20
 200.368605
11
 -14.590236
21
 200.370606
 0
POLYLINE
 8
0
 62
7
 66
 1
 10
0.0
 20
0.0
 30
0.0
 0
VERTEX
 8
0
 10
85.387551
 20
197.098471
 30
0.0
 0
VERTEX
 8
0
 10
86.859776
 20
197.098471
 30
0.0
 0
VERTEX
 8
0
 10
85.157261
 20
202.025977
 30
0.0
 0
VERTEX
 8
0
 10
84.894780
 20
202.845969
 30
0.0
 0
VERTEX
 8
0
 10
84.664769
 20
203.635978
 30
0.0
 0
VERTEX
 8
0
 10
84.459782
 20
204.400977
 30
0.0
 0
VERTEX
 8
0
 10
84.267277
 20
205.148474
 30
0.0
 0
VERTEX
 8
0
 10
84.217290
 20
205.148474
 30
0.0
 0
VERTEX
 8
0
 10
84.024785
 20
204.393470
 30
0.0
 0
VERTEX
 8
0
 10
83.822270
 20
203.618476
 30
0.0
 0
VERTEX
 8
0
 10
83.602269
 20
202.833472
 30
0.0
 0
VERTEX
 8
0
 10
83.354771
 20
202.050971
 30
0.0
 0
VERTEX
 8
0
 10
81.677281
 20
197.098471
 30
0.0
 0
VERTEX
 8
0
 10
82.887550
 20
197.098471
 30
0.0
 0
SEQEND
 8
0
 0
POLYLINE
 8
0
 62
7
 66
 1
 10
0.0
 20
0.0
 30
0.0
 0
VERTEX
 8
0
 10
82.889113
 20
195.370978
 30
0.0
 0
VERTEX
 8
0
 10
81.219761
 20
195.370978
 30
0.0
 0
VERTEX
 8
0
 10
79.442265
 20
189.985984
 30
0.0
 0
VERTEX
 8
0
 10
77.154790
 20
189.985984
 30
0.0
 0
VERTEX
 8
0
 10
82.997288
 20
207.105979
 30
0.0
 0
VERTEX
 8
0
 10
85.639775
 20
207.105979
 30
0.0
 0
VERTEX
 8
0
 10
91.482274
 20
189.985984
 30
0.0
 0
VERTEX
 8
0
 10
89.119786
 20
189.985984
 30
0.0
 0
VERTEX
 8
0
 10
87.289769
 20
195.370978
 30
0.0
 0
VERTEX
 8
0
 10
85.389114
 20
195.370978
 30
0.0
 0
SEQEND
 8
0
 0
LINE
 8
0
 62
256
10
 82.887550
20
 197.098471
11
 82.889113
21
 195.370978
 0
LINE
 8
0
 62
256
10
 85.387551
20
 197.098471
11
 85.389114
21
 195.370978
 0
POLYLINE
 8
0
 62
7
 66
 1
 10
0.0
 20
0.0
 30
0.0
 0
VERTEX
 8
0
 10
181.226542
 20
162.070975
 30
0.0
 0
VERTEX
 8
0
 10
182.317265
 20
162.070975
 30
0.0
 0
VERTEX
 8
0
 10
180.614766
 20
166.998481
 30
0.0
 0
VERTEX
 8
0
 10
180.349766
 20
167.818473
 30
0.0
 0
VERTEX
 8
0
 10
180.122273
 20
168.608481
 30
0.0
 0
VERTEX
 8
0
 10
179.917271
 20
169.373481
 30
0.0
 0
VERTEX
 8
0
 10
179.724766
 20
170.123481
 30
0.0
 0
VERTEX
 8
0
 10
179.674763
 20
170.123481
 30
0.0
 0
VERTEX
 8
0
 10
179.482258
 20
169.368476
 30
0.0
 0
VERTEX
 8
0
 10
179.279759
 20
168.593482
 30
0.0
 0
VERTEX
 8
0
 10
179.059773
 20
167.808478
 30
0.0
 0
VERTEX
 8
0
 10
178.809773
 20
167.023474
 30
0.0
 0
VERTEX
 8
0
 10
177.134770
 20
162.070975
 30
0.0
 0
VERTEX
 8
0
 10
178.726541
 20
162.070975
 30
0.0
 0
SEQEND
 8
0
 0
POLYLINE
 8
0
 62
7
 66
 1
 10
0.0
 20
0.0
 30
0.0
 0
VERTEX
 8
0
 10
178.728105
 20
160.343482
 30
0.0
 0
VERTEX
 8
0
 10
176.677266
 20
160.343482
 30
0.0
 0
VERTEX
 8
0
 10
174.899769
 20
154.958472
 30
0.0
 0
VERTEX
 8
0
 10
172.612263
 20
154.958472
 30
0.0
 0
VERTEX
 8
0
 10
178.454762
 20
172.080970
 30
0.0
 0
VERTEX
 8
0
 10
181.097264
 20
172.080970
 30
0.0
 0
VERTEX
 8
0
 10
186.939763
 20
154.958472
 30
0.0
 0
VERTEX
 8
0
 10
184.577260
 20
154.958472
 30
0.0
 0
VERTEX
 8
0
 10
182.747273
 20
160.343482
 30
0.0
 0
VERTEX
 8
0
 10
181.228106
 20
160.343482
 30
0.0
 0
SEQEND
 8
0
 0
LINE
 8
0
 62
256
10
 181.226542
20
 162.070975
11
 181.228106
21
 160.343482
 0
LINE
 8
0
 62
256
10
 178.726541
20
 162.070975
11
 178.728105
21
 160.343482
 0
POLYLINE
 8
0
 62
7
 66
 1
 10
0.0
 20
0.0
 30
0.0
 0
VERTEX
 8
0
 10
49.387272
 20
131.073574
 30
0.0
 0
VERTEX
 8
0
 10
49.387272
 20
129.800971
 30
0.0
 0
VERTEX
 8
0
 10
51.394780
 20
129.800971
 30
0.0
 0
VERTEX
 8
0
 10
51.817265
 20
129.815970
 30
0.0
 0
VERTEX
 8
0
 10
52.217290
 20
129.858481
 30
0.0
 0
VERTEX
 8
0
 10
52.592290
 20
129.925971
 30
0.0
 0
VERTEX
 8
0
 10
52.944768
 20
130.020972
 30
0.0
 0
VERTEX
 8
0
 10
53.272282
 20
130.140982
 30
0.0
 0
VERTEX
 8
0
 10
53.574772
 20
130.280982
 30
0.0
 0
VERTEX
 8
0
 10
53.852269
 20
130.445975
 30
0.0
 0
VERTEX
 8
0
 10
54.102269
 20
130.630973
 30
0.0
 0
VERTEX
 8
0
 10
54.324772
 20
130.833472
 30
0.0
 0
VERTEX
 8
0
 10
54.522282
 20
131.055976
 30
0.0
 0
VERTEX
 8
0
 10
54.687291
 20
131.293479
 30
0.0
 0
VERTEX
 8
0
 10
54.827275
 20
131.548484
 30
0.0
 0
VERTEX
 8
0
 10
54.934788
 20
131.815970
 30
0.0
 0
VERTEX
 8
0
 10
55.014775
 20
132.098471
 30
0.0
 0
VERTEX
 8
0
 10
55.062291
 20
132.390982
 30
0.0
 0
VERTEX
 8
0
 10
55.077275
 20
132.695975
 30
0.0
 0
VERTEX
 8
0
 10
55.059788
 20
133.053473
 30
0.0
 0
VERTEX
 8
0
 10
55.007268
 20
133.385978
 30
0.0
 0
VERTEX
 8
0
 10
54.924779
 20
133.690970
 30
0.0
 0
VERTEX
 8
0
 10
54.807286
 20
133.968482
 30
0.0
 0
VERTEX
 8
0
 10
54.662266
 20
134.223471
 30
0.0
 0
VERTEX
 8
0
 10
54.484776
 20
134.450980
 30
0.0
 0
VERTEX
 8
0
 10
54.279790
 20
134.655982
 30
0.0
 0
VERTEX
 8
0
 10
54.047276
 20
134.835974
 30
0.0
 0
VERTEX
 8
0
 10
53.789769
 20
134.993476
 30
0.0
 0
VERTEX
 8
0
 10
53.507268
 20
135.128470
 30
0.0
 0
VERTEX
 8
0
 10
53.199772
 20
135.240973
 30
0.0
 0
VERTEX
 8
0
 10
52.869786
 20
135.333472
 30
0.0
 0
VERTEX
 8
0
 10
52.517277
 20
135.403479
 30
0.0
 0
VERTEX
 8
0
 10
52.144780
 20
135.450980
 30
0.0
 0
VERTEX
 8
0
 10
51.752263
 20
135.480979
 30
0.0
 0
VERTEX
 8
0
 10
51.342290
 20
135.490973
 30
0.0
 0
VERTEX
 8
0
 10
50.982274
 20
135.488471
 30
0.0
 0
VERTEX
 8
0
 10
50.657261
 20
135.478476
 30
0.0
 0
VERTEX
 8
0
 10
50.372288
 20
135.463477
 30
0.0
 0
VERTEX
 8
0
 10
50.117283
 20
135.443473
 30
0.0
 0
VERTEX
 8
0
 10
49.894780
 20
135.420981
 30
0.0
 0
VERTEX
 8
0
 10
49.699772
 20
135.395972
 30
0.0
 0
VERTEX
 8
0
 10
49.532261
 20
135.368476
 30
0.0
 0
VERTEX
 8
0
 10
49.387272
 20
135.338477
 30
0.0
 0
VERTEX
 8
0
 10
49.387272
 20
133.573575
 30
0.0
 0
SEQEND
 8
0
 0
LINE
 8
0
 62
256
10
 47.177281
20
 133.571574
11
 49.387272
21
 133.573575
 0
LINE
 8
0
 62
256
10
 47.177281
20
 131.071573
11
 49.387272
21
 131.073574
 0
POLYLINE
 8
0
 62
7
 66
 1
 10
0.0
 20
0.0
 30
0.0
 0
VERTEX
 8
0
 10
47.177281
 20
133.571574
 30
0.0
 0
VERTEX
 8
0
 10
47.177281
 20
136.813483
 30
0.0
 0
VERTEX
 8
0
 10
47.564763
 20
136.895972
 30
0.0
 0
VERTEX
 8
0
 10
48.002263
 20
136.968482
 30
0.0
 0
VERTEX
 8
0
 10
48.477269
 20
137.033484
 30
0.0
 0
VERTEX
 8
0
 10
48.987279
 20
137.088477
 30
0.0
 0
VERTEX
 8
0
 10
49.522282
 20
137.133475
 30
0.0
 0
VERTEX
 8
0
 10
50.077275
 20
137.165976
 30
0.0
 0
VERTEX
 8
0
 10
51.214787
 20
137.193473
 30
0.0
 0
VERTEX
 8
0
 10
51.619786
 20
137.188483
 30
0.0
 0
VERTEX
 8
0
 10
52.007268
 20
137.175971
 30
0.0
 0
VERTEX
 8
0
 10
52.377263
 20
137.153479
 30
0.0
 0
VERTEX
 8
0
 10
52.729771
 20
137.120978
 30
0.0
 0
VERTEX
 8
0
 10
53.067265
 20
137.078482
 30
0.0
 0
VERTEX
 8
0
 10
53.389775
 20
137.028479
 30
0.0
 0
VERTEX
 8
0
 10
53.989781
 20
136.895972
 30
0.0
 0
VERTEX
 8
0
 10
54.534764
 20
136.723471
 30
0.0
 0
VERTEX
 8
0
 10
55.029790
 20
136.508475
 30
0.0
 0
VERTEX
 8
0
 10
55.479771
 20
136.250983
 30
0.0
 0
VERTEX
 8
0
 10
55.889775
 20
135.948478
 30
0.0
 0
VERTEX
 8
0
 10
56.207280
 20
135.683478
 30
0.0
 0
VERTEX
 8
0
 10
56.492283
 20
135.385978
 30
0.0
 0
VERTEX
 8
0
 10
56.739781
 20
135.055976
 30
0.0
 0
VERTEX
 8
0
 10
56.947270
 20
134.693473
 30
0.0
 0
VERTEX
 8
0
 10
57.114781
 20
134.298484
 30
0.0
 0
VERTEX
 8
0
 10
57.237279
 20
133.873481
 30
0.0
 0
VERTEX
 8
0
 10
57.312291
 20
133.415976
 30
0.0
 0
VERTEX
 8
0
 10
57.337285
 20
132.925971
 30
0.0
 0
VERTEX
 8
0
 10
57.324772
 20
132.613471
 30
0.0
 0
VERTEX
 8
0
 10
57.284764
 20
132.308478
 30
0.0
 0
VERTEX
 8
0
 10
57.222264
 20
132.010978
 30
0.0
 0
VERTEX
 8
0
 10
57.134770
 20
131.720984
 30
0.0
 0
VERTEX
 8
0
 10
57.024785
 20
131.438483
 30
0.0
 0
VERTEX
 8
0
 10
56.889775
 20
131.165976
 30
0.0
 0
VERTEX
 8
0
 10
56.734776
 20
130.905982
 30
0.0
 0
VERTEX
 8
0
 10
56.557286
 20
130.655982
 30
0.0
 0
VERTEX
 8
0
 10
56.357274
 20
130.415976
 30
0.0
 0
VERTEX
 8
0
 10
56.139775
 20
130.193473
 30
0.0
 0
VERTEX
 8
0
 10
55.902287
 20
129.980979
 30
0.0
 0
VERTEX
 8
0
 10
55.644780
 20
129.785971
 30
0.0
 0
VERTEX
 8
0
 10
55.369786
 20
129.605979
 30
0.0
 0
VERTEX
 8
0
 10
55.077275
 20
129.440970
 30
0.0
 0
VERTEX
 8
0
 10
54.767277
 20
129.293479
 30
0.0
 0
VERTEX
 8
0
 10
54.442265
 20
129.165976
 30
0.0
 0
VERTEX
 8
0
 10
54.442265
 20
129.088477
 30
0.0
 0
VERTEX
 8
0
 10
54.749791
 20
129.005973
 30
0.0
 0
VERTEX
 8
0
 10
55.059788
 20
128.900977
 30
0.0
 0
VERTEX
 8
0
 10
55.372288
 20
128.770972
 30
0.0
 0
VERTEX
 8
0
 10
55.679783
 20
128.618483
 30
0.0
 0
VERTEX
 8
0
 10
55.982274
 20
128.443480
 30
0.0
 0
VERTEX
 8
0
 10
56.272282
 20
128.240981
 30
0.0
 0
VERTEX
 8
0
 10
56.552281
 20
128.015982
 30
0.0
 0
VERTEX
 8
0
 10
56.817265
 20
127.765982
 30
0.0
 0
VERTEX
 8
0
 10
57.062291
 20
127.490981
 30
0.0
 0
VERTEX
 8
0
 10
57.284764
 20
127.188483
 30
0.0
 0
VERTEX
 8
0
 10
57.479771
 20
126.860984
 30
0.0
 0
VERTEX
 8
0
 10
57.649785
 20
126.505980
 30
0.0
 0
VERTEX
 8
0
 10
57.784764
 20
126.125983
 30
0.0
 0
VERTEX
 8
0
 10
57.887272
 20
125.718482
 30
0.0
 0
VERTEX
 8
0
 10
57.949772
 20
125.283484
 30
0.0
 0
VERTEX
 8
0
 10
57.972264
 20
124.820983
 30
0.0
 0
VERTEX
 8
0
 10
57.944768
 20
124.283484
 30
0.0
 0
VERTEX
 8
0
 10
57.867283
 20
123.778479
 30
0.0
 0
VERTEX
 8
0
 10
57.742283
 20
123.303481
 30
0.0
 0
VERTEX
 8
0
 10
57.569768
 20
122.860984
 30
0.0
 0
VERTEX
 8
0
 10
57.357274
 20
122.445983
 30
0.0
 0
VERTEX
 8
0
 10
57.104771
 20
122.065978
 30
0.0
 0
VERTEX
 8
0
 10
56.819768
 20
121.713485
 30
0.0
 0
VERTEX
 8
0
 10
56.499791
 20
121.393485
 30
0.0
 0
VERTEX
 8
0
 10
56.272282
 20
121.195983
 30
0.0
 0
VERTEX
 8
0
 10
56.024785
 20
121.010985
 30
0.0
 0
VERTEX
 8
0
 10
55.762272
 20
120.840979
 30
0.0
 0
VERTEX
 8
0
 10
55.479771
 20
120.683478
 30
0.0
 0
VERTEX
 8
0
 10
55.177281
 20
120.538481
 30
0.0
 0
VERTEX
 8
0
 10
54.859776
 20
120.405982
 30
0.0
 0
VERTEX
 8
0
 10
54.519780
 20
120.288481
 30
0.0
 0
VERTEX
 8
0
 10
54.162266
 20
120.183478
 30
0.0
 0
VERTEX
 8
0
 10
53.787266
 20
120.090979
 30
0.0
 0
VERTEX
 8
0
 10
53.392277
 20
120.010985
 30
0.0
 0
VERTEX
 8
0
 10
52.977269
 20
119.943480
 30
0.0
 0
VERTEX
 8
0
 10
52.542271
 20
119.890982
 30
0.0
 0
VERTEX
 8
0
 10
52.087285
 20
119.848479
 30
0.0
 0
VERTEX
 8
0
 10
51.614781
 20
119.818480
 30
0.0
 0
VERTEX
 8
0
 10
51.119786
 20
119.798484
 30
0.0
 0
VERTEX
 8
0
 10
50.607274
 20
119.793479
 30
0.0
 0
VERTEX
 8
0
 10
50.052281
 20
119.798484
 30
0.0
 0
VERTEX
 8
0
 10
49.532261
 20
119.810981
 30
0.0
 0
VERTEX
 8
0
 10
49.047276
 20
119.830985
 30
0.0
 0
VERTEX
 8
0
 10
48.597264
 20
119.855979
 30
0.0
 0
VERTEX
 8
0
 10
48.184788
 20
119.885985
 30
0.0
 0
VERTEX
 8
0
 10
47.809788
 20
119.920981
 30
0.0
 0
VERTEX
 8
0
 10
47.474766
 20
119.958480
 30
0.0
 0
VERTEX
 8
0
 10
47.177281
 20
119.995978
 30
0.0
 0
VERTEX
 8
0
 10
47.177281
 20
123.627626
 30
0.0
 0
SEQEND
 8
0
 0
POLYLINE
 8
0
 62
7
 66
 1
 10
0.0
 20
0.0
 30
0.0
 0
VERTEX
 8
0
 10
47.177281
 20
126.127627
 30
0.0
 0
VERTEX
 8
0
 10
47.177281
 20
131.071573
 30
0.0
 0
SEQEND
 8
0
 0
POLYLINE
 8
0
 62
7
 66
 1
 10
0.0
 20
0.0
 30
0.0
 0
VERTEX
 8
0
 10
49.387272
 20
123.629627
 30
0.0
 0
VERTEX
 8
0
 10
49.387272
 20
121.620978
 30
0.0
 0
VERTEX
 8
0
 10
49.759770
 20
121.573485
 30
0.0
 0
VERTEX
 8
0
 10
49.967290
 20
121.555983
 30
0.0
 0
VERTEX
 8
0
 10
50.189763
 20
121.543479
 30
0.0
 0
VERTEX
 8
0
 10
50.429783
 20
121.533484
 30
0.0
 0
VERTEX
 8
0
 10
50.684788
 20
121.525985
 30
0.0
 0
VERTEX
 8
0
 10
50.954777
 20
121.520980
 30
0.0
 0
VERTEX
 8
0
 10
51.242283
 20
121.520980
 30
0.0
 0
VERTEX
 8
0
 10
51.667271
 20
121.530982
 30
0.0
 0
VERTEX
 8
0
 10
52.087285
 20
121.560981
 30
0.0
 0
VERTEX
 8
0
 10
52.497288
 20
121.613478
 30
0.0
 0
VERTEX
 8
0
 10
52.892277
 20
121.690978
 30
0.0
 0
VERTEX
 8
0
 10
53.274785
 20
121.790984
 30
0.0
 0
VERTEX
 8
0
 10
53.637272
 20
121.918479
 30
0.0
 0
VERTEX
 8
0
 10
53.977269
 20
122.070983
 30
0.0
 0
VERTEX
 8
0
 10
54.294774
 20
122.250983
 30
0.0
 0
VERTEX
 8
0
 10
54.587285
 20
122.460982
 30
0.0
 0
VERTEX
 8
0
 10
54.847264
 20
122.700980
 30
0.0
 0
VERTEX
 8
0
 10
55.077275
 20
122.973479
 30
0.0
 0
VERTEX
 8
0
 10
55.269780
 20
123.278479
 30
0.0
 0
VERTEX
 8
0
 10
55.424779
 20
123.615981
 30
0.0
 0
VERTEX
 8
0
 10
55.539769
 20
123.990981
 30
0.0
 0
VERTEX
 8
0
 10
55.609776
 20
124.400985
 30
0.0
 0
VERTEX
 8
0
 10
55.634770
 20
124.848479
 30
0.0
 0
VERTEX
 8
0
 10
55.612279
 20
125.265982
 30
0.0
 0
VERTEX
 8
0
 10
55.544774
 20
125.653479
 30
0.0
 0
VERTEX
 8
0
 10
55.434788
 20
126.010978
 30
0.0
 0
VERTEX
 8
0
 10
55.284764
 20
126.338485
 30
0.0
 0
VERTEX
 8
0
 10
55.097264
 20
126.638480
 30
0.0
 0
VERTEX
 8
0
 10
54.872288
 20
126.908484
 30
0.0
 0
VERTEX
 8
0
 10
54.617283
 20
127.150985
 30
0.0
 0
VERTEX
 8
0
 10
54.329777
 20
127.365981
 30
0.0
 0
VERTEX
 8
0
 10
54.014775
 20
127.553481
 30
0.0
 0
VERTEX
 8
0
 10
53.674779
 20
127.715979
 30
0.0
 0
VERTEX
 8
0
 10
53.309788
 20
127.850981
 30
0.0
 0
VERTEX
 8
0
 10
52.924779
 20
127.960982
 30
0.0
 0
VERTEX
 8
0
 10
52.519780
 20
128.043479
 30
0.0
 0
VERTEX
 8
0
 10
52.097264
 20
128.103484
 30
0.0
 0
VERTEX
 8
0
 10
51.662266
 20
128.138480
 30
0.0
 0
VERTEX
 8
0
 10
51.214787
 20
128.150985
 30
0.0
 0
VERTEX
 8
0
 10
49.387272
 20
128.150985
 30
0.0
 0
VERTEX
 8
0
 10
49.387272
 20
126.129628
 30
0.0
 0
SEQEND
 8
0
 0
LINE
 8
0
 62
256
10
 47.177281
20
 123.627626
11
 49.387272
21
 123.629627
 0
LINE
 8
0
 62
256
10
 47.177281
20
 126.127627
11
 49.387272
21
 126.129628
 0
POLYLINE
 8
0
 62
7
 66
 1
 10
0.0
 20
0.0
 30
0.0
 0
VERTEX
 8
0
 10
206.168327
 20
127.521844
 30
0.0
 0
VERTEX
 8
0
 10
206.177266
 20
127.435981
 30
0.0
 0
VERTEX
 8
0
 10
206.289769
 20
126.783484
 30
0.0
 0
VERTEX
 8
0
 10
206.449772
 20
126.153479
 30
0.0
 0
VERTEX
 8
0
 10
206.652272
 20
125.548484
 30
0.0
 0
VERTEX
 8
0
 10
206.897267
 20
124.973479
 30
0.0
 0
VERTEX
 8
0
 10
207.184758
 20
124.433478
 30
0.0
 0
VERTEX
 8
0
 10
207.512272
 20
123.933478
 30
0.0
 0
VERTEX
 8
0
 10
207.884770
 20
123.475981
 30
0.0
 0
VERTEX
 8
0
 10
208.294758
 20
123.063483
 30
0.0
 0
VERTEX
 8
0
 10
208.744771
 20
122.705985
 30
0.0
 0
VERTEX
 8
0
 10
209.234761
 20
122.403479
 30
0.0
 0
VERTEX
 8
0
 10
209.494771
 20
122.273482
 30
0.0
 0
VERTEX
 8
0
 10
209.762272
 20
122.160979
 30
0.0
 0
VERTEX
 8
0
 10
210.042271
 20
122.063483
 30
0.0
 0
VERTEX
 8
0
 10
210.329762
 20
121.980979
 30
0.0
 0
VERTEX
 8
0
 10
210.627263
 20
121.918479
 30
0.0
 0
VERTEX
 8
0
 10
210.932271
 20
121.870978
 30
0.0
 0
VERTEX
 8
0
 10
211.247258
 20
121.843482
 30
0.0
 0
VERTEX
 8
0
 10
211.572270
 20
121.833480
 30
0.0
 0
VERTEX
 8
0
 10
211.897267
 20
121.843482
 30
0.0
 0
VERTEX
 8
0
 10
212.212269
 20
121.870978
 30
0.0
 0
VERTEX
 8
0
 10
212.517262
 20
121.915984
 30
0.0
 0
VERTEX
 8
0
 10
212.814763
 20
121.978484
 30
0.0
 0
VERTEX
 8
0
 10
213.102269
 20
122.060981
 30
0.0
 0
VERTEX
 8
0
 10
213.379765
 20
122.155982
 30
0.0
 0
VERTEX
 8
0
 10
213.649769
 20
122.268485
 30
0.0
 0
VERTEX
 8
0
 10
213.907261
 20
122.398482
 30
0.0
 0
VERTEX
 8
0
 10
214.157261
 20
122.540984
 30
0.0
 0
VERTEX
 8
0
 10
214.397267
 20
122.700980
 30
0.0
 0
VERTEX
 8
0
 10
214.847264
 20
123.058478
 30
0.0
 0
VERTEX
 8
0
 10
215.259770
 20
123.470984
 30
0.0
 0
VERTEX
 8
0
 10
215.629765
 20
123.930983
 30
0.0
 0
VERTEX
 8
0
 10
215.957265
 20
124.438483
 30
0.0
 0
VERTEX
 8
0
 10
216.244771
 20
124.985984
 30
0.0
 0
VERTEX
 8
0
 10
216.492268
 20
125.573478
 30
0.0
 0
VERTEX
 8
0
 10
216.692265
 20
126.193480
 30
0.0
 0
VERTEX
 8
0
 10
216.852269
 20
126.845984
 30
0.0
 0
VERTEX
 8
0
 10
216.964772
 20
127.523482
 30
0.0
 0
VERTEX
 8
0
 10
217.034764
 20
128.225981
 30
0.0
 0
VERTEX
 8
0
 10
217.057271
 20
128.945975
 30
0.0
 0
VERTEX
 8
0
 10
217.037266
 20
129.588477
 30
0.0
 0
VERTEX
 8
0
 10
216.974766
 20
130.230979
 30
0.0
 0
VERTEX
 8
0
 10
216.869771
 20
130.863471
 30
0.0
 0
VERTEX
 8
0
 10
216.722264
 20
131.483481
 30
0.0
 0
VERTEX
 8
0
 10
216.532261
 20
132.085974
 30
0.0
 0
VERTEX
 8
0
 10
216.299763
 20
132.663474
 30
0.0
 0
VERTEX
 8
0
 10
216.024769
 20
133.210974
 30
0.0
 0
VERTEX
 8
0
 10
215.707265
 20
133.725974
 30
0.0
 0
VERTEX
 8
0
 10
215.347264
 20
134.198478
 30
0.0
 0
VERTEX
 8
0
 10
214.942265
 20
134.625983
 30
0.0
 0
VERTEX
 8
0
 10
214.494771
 20
135.000983
 30
0.0
 0
VERTEX
 8
0
 10
214.254765
 20
135.168479
 30
0.0
 0
VERTEX
 8
0
 10
214.004765
 20
135.320975
 30
0.0
 0
VERTEX
 8
0
 10
213.742268
 20
135.458472
 30
0.0
 0
VERTEX
 8
0
 10
213.469761
 20
135.580985
 30
0.0
 0
VERTEX
 8
0
 10
213.184758
 20
135.683478
 30
0.0
 0
VERTEX
 8
0
 10
212.889760
 20
135.770972
 30
0.0
 0
VERTEX
 8
0
 10
212.582265
 20
135.840979
 30
0.0
 0
VERTEX
 8
0
 10
212.264760
 20
135.890982
 30
0.0
 0
VERTEX
 8
0
 10
211.937260
 20
135.920981
 30
0.0
 0
VERTEX
 8
0
 10
211.597264
 20
135.930976
 30
0.0
 0
VERTEX
 8
0
 10
211.257268
 20
135.920981
 30
0.0
 0
VERTEX
 8
0
 10
210.927266
 20
135.890982
 30
0.0
 0
VERTEX
 8
0
 10
210.609761
 20
135.843482
 30
0.0
 0
VERTEX
 8
0
 10
210.302266
 20
135.778479
 30
0.0
 0
VERTEX
 8
0
 10
210.004765
 20
135.693473
 30
0.0
 0
VERTEX
 8
0
 10
209.719761
 20
135.593482
 30
0.0
 0
VERTEX
 8
0
 10
209.444768
 20
135.473471
 30
0.0
 0
VERTEX
 8
0
 10
209.182271
 20
135.340979
 30
0.0
 0
VERTEX
 8
0
 10
208.927266
 20
135.190970
 30
0.0
 0
VERTEX
 8
0
 10
208.684758
 20
135.028479
 30
0.0
 0
VERTEX
 8
0
 10
208.234761
 20
134.658484
 30
0.0
 0
VERTEX
 8
0
 10
207.824772
 20
134.233481
 30
0.0
 0
VERTEX
 8
0
 10
207.459767
 20
133.763480
 30
0.0
 0
VERTEX
 8
0
 10
207.137272
 20
133.248481
 30
0.0
 0
VERTEX
 8
0
 10
206.857258
 20
132.693473
 30
0.0
 0
VERTEX
 8
0
 10
206.622258
 20
132.103476
 30
0.0
 0
VERTEX
 8
0
 10
206.427266
 20
131.483481
 30
0.0
 0
VERTEX
 8
0
 10
206.277272
 20
130.838477
 30
0.0
 0
VERTEX
 8
0
 10
206.169758
 20
130.173484
 30
0.0
 0
VERTEX
 8
0
 10
206.155922
 20
130.021834
 30
0.0
 0
SEQEND
 8
0
 0
POLYLINE
 8
0
 62
7
 66
 1
 10
0.0
 20
0.0
 30
0.0
 0
VERTEX
 8
0
 10
203.814850
 20
130.019715
 30
0.0
 0
VERTEX
 8
0
 10
203.834767
 20
130.220984
 30
0.0
 0
VERTEX
 8
0
 10
203.899769
 20
130.690970
 30
0.0
 0
VERTEX
 8
0
 10
203.984761
 20
131.145972
 30
0.0
 0
VERTEX
 8
0
 10
204.087269
 20
131.590979
 30
0.0
 0
VERTEX
 8
0
 10
204.207265
 20
132.023474
 30
0.0
 0
VERTEX
 8
0
 10
204.342259
 20
132.440970
 30
0.0
 0
VERTEX
 8
0
 10
204.494771
 20
132.845984
 30
0.0
 0
VERTEX
 8
0
 10
204.664769
 20
133.238471
 30
0.0
 0
VERTEX
 8
0
 10
204.849766
 20
133.613471
 30
0.0
 0
VERTEX
 8
0
 10
205.049763
 20
133.975974
 30
0.0
 0
VERTEX
 8
0
 10
205.264760
 20
134.325980
 30
0.0
 0
VERTEX
 8
0
 10
205.494771
 20
134.658484
 30
0.0
 0
VERTEX
 8
0
 10
205.737263
 20
134.975974
 30
0.0
 0
VERTEX
 8
0
 10
205.994771
 20
135.278479
 30
0.0
 0
VERTEX
 8
0
 10
206.267262
 20
135.563483
 30
0.0
 0
VERTEX
 8
0
 10
206.549763
 20
135.833472
 30
0.0
 0
VERTEX
 8
0
 10
206.847264
 20
136.088477
 30
0.0
 0
VERTEX
 8
0
 10
207.154759
 20
136.323478
 30
0.0
 0
VERTEX
 8
0
 10
207.477269
 20
136.543479
 30
0.0
 0
VERTEX
 8
0
 10
207.807271
 20
136.745978
 30
0.0
 0
VERTEX
 8
0
 10
208.152272
 20
136.928473
 30
0.0
 0
VERTEX
 8
0
 10
208.504765
 20
137.095984
 30
0.0
 0
VERTEX
 8
0
 10
208.869771
 20
137.243476
 30
0.0
 0
VERTEX
 8
0
 10
209.242268
 20
137.370978
 30
0.0
 0
VERTEX
 8
0
 10
209.627263
 20
137.480979
 30
0.0
 0
VERTEX
 8
0
 10
210.019765
 20
137.573478
 30
0.0
 0
VERTEX
 8
0
 10
210.419758
 20
137.643470
 30
0.0
 0
VERTEX
 8
0
 10
210.829762
 20
137.693473
 30
0.0
 0
VERTEX
 8
0
 10
211.247258
 20
137.725974
 30
0.0
 0
VERTEX
 8
0
 10
211.672261
 20
137.735984
 30
0.0
 0
VERTEX
 8
0
 10
212.107258
 20
137.725974
 30
0.0
 0
VERTEX
 8
0
 10
212.534764
 20
137.693473
 30
0.0
 0
VERTEX
 8
0
 10
212.949772
 20
137.643470
 30
0.0
 0
VERTEX
 8
0
 10
213.352269
 20
137.570975
 30
0.0
 0
VERTEX
 8
0
 10
213.747258
 20
137.480979
 30
0.0
 0
VERTEX
 8
0
 10
214.129765
 20
137.370978
 30
0.0
 0
VERTEX
 8
0
 10
214.502263
 20
137.243476
 30
0.0
 0
VERTEX
 8
0
 10
214.862263
 20
137.095984
 30
0.0
 0
VERTEX
 8
0
 10
215.209767
 20
136.930976
 30
0.0
 0
VERTEX
 8
0
 10
215.544758
 20
136.748481
 30
0.0
 0
VERTEX
 8
0
 10
215.869771
 20
136.548484
 30
0.0
 0
VERTEX
 8
0
 10
216.182271
 20
136.333472
 30
0.0
 0
VERTEX
 8
0
 10
216.479771
 20
136.100974
 30
0.0
 0
VERTEX
 8
0
 10
216.764760
 20
135.850974
 30
0.0
 0
VERTEX
 8
0
 10
217.037266
 20
135.585974
 30
0.0
 0
VERTEX
 8
0
 10
217.294758
 20
135.305976
 30
0.0
 0
VERTEX
 8
0
 10
217.772267
 20
134.700980
 30
0.0
 0
VERTEX
 8
0
 10
218.189763
 20
134.040976
 30
0.0
 0
VERTEX
 8
0
 10
218.377263
 20
133.688483
 30
0.0
 0
VERTEX
 8
0
 10
218.549763
 20
133.323478
 30
0.0
 0
VERTEX
 8
0
 10
218.707265
 20
132.948478
 30
0.0
 0
VERTEX
 8
0
 10
218.849766
 20
132.558478
 30
0.0
 0
VERTEX
 8
0
 10
218.974766
 20
132.155982
 30
0.0
 0
VERTEX
 8
0
 10
219.084767
 20
131.743476
 30
0.0
 0
VERTEX
 8
0
 10
219.177266
 20
131.320975
 30
0.0
 0
VERTEX
 8
0
 10
219.254765
 20
130.885978
 30
0.0
 0
VERTEX
 8
0
 10
219.317265
 20
130.440970
 30
0.0
 0
VERTEX
 8
0
 10
219.359761
 20
129.983481
 30
0.0
 0
VERTEX
 8
0
 10
219.384770
 20
129.518485
 30
0.0
 0
VERTEX
 8
0
 10
219.394765
 20
129.045981
 30
0.0
 0
VERTEX
 8
0
 10
219.384770
 20
128.503478
 30
0.0
 0
VERTEX
 8
0
 10
219.352269
 20
127.978484
 30
0.0
 0
VERTEX
 8
0
 10
219.302266
 20
127.468482
 30
0.0
 0
VERTEX
 8
0
 10
219.232258
 20
126.973479
 30
0.0
 0
VERTEX
 8
0
 10
219.142262
 20
126.495978
 30
0.0
 0
VERTEX
 8
0
 10
219.034764
 20
126.035979
 30
0.0
 0
VERTEX
 8
0
 10
218.909764
 20
125.590979
 30
0.0
 0
VERTEX
 8
0
 10
218.767262
 20
125.160979
 30
0.0
 0
VERTEX
 8
0
 10
218.607258
 20
124.750983
 30
0.0
 0
VERTEX
 8
0
 10
218.432271
 20
124.353484
 30
0.0
 0
VERTEX
 8
0
 10
218.239766
 20
123.975981
 30
0.0
 0
VERTEX
 8
0
 10
218.032261
 20
123.613478
 30
0.0
 0
VERTEX
 8
0
 10
217.809758
 20
123.268485
 30
0.0
 0
VERTEX
 8
0
 10
217.572270
 20
122.940978
 30
0.0
 0
VERTEX
 8
0
 10
217.322270
 20
122.630980
 30
0.0
 0
VERTEX
 8
0
 10
217.059758
 20
122.335982
 30
0.0
 0
VERTEX
 8
0
 10
216.782261
 20
122.060981
 30
0.0
 0
VERTEX
 8
0
 10
216.492268
 20
121.800978
 30
0.0
 0
VERTEX
 8
0
 10
216.192265
 20
121.558478
 30
0.0
 0
VERTEX
 8
0
 10
215.879765
 20
121.333480
 30
0.0
 0
VERTEX
 8
0
 10
215.557271
 20
121.128478
 30
0.0
 0
VERTEX
 8
0
 10
215.224766
 20
120.938483
 30
0.0
 0
VERTEX
 8
0
 10
214.882268
 20
120.765982
 30
0.0
 0
VERTEX
 8
0
 10
214.529759
 20
120.610984
 30
0.0
 0
VERTEX
 8
0
 10
214.169758
 20
120.475981
 30
0.0
 0
VERTEX
 8
0
 10
213.802266
 20
120.358481
 30
0.0
 0
VERTEX
 8
0
 10
213.424763
 20
120.255980
 30
0.0
 0
VERTEX
 8
0
 10
213.042271
 20
120.173484
 30
0.0
 0
VERTEX
 8
0
 10
212.649769
 20
120.110984
 30
0.0
 0
VERTEX
 8
0
 10
212.254765
 20
120.063483
 30
0.0
 0
VERTEX
 8
0
 10
211.852269
 20
120.035979
 30
0.0
 0
VERTEX
 8
0
 10
211.444768
 20
120.028479
 30
0.0
 0
VERTEX
 8
0
 10
211.022267
 20
120.038481
 30
0.0
 0
VERTEX
 8
0
 10
210.609761
 20
120.068480
 30
0.0
 0
VERTEX
 8
0
 10
210.204762
 20
120.120978
 30
0.0
 0
VERTEX
 8
0
 10
209.807271
 20
120.190978
 30
0.0
 0
VERTEX
 8
0
 10
209.422261
 20
120.280982
 30
0.0
 0
VERTEX
 8
0
 10
209.044758
 20
120.388480
 30
0.0
 0
VERTEX
 8
0
 10
208.679768
 20
120.515982
 30
0.0
 0
VERTEX
 8
0
 10
208.324772
 20
120.660979
 30
0.0
 0
VERTEX
 8
0
 10
207.977269
 20
120.825980
 30
0.0
 0
VERTEX
 8
0
 10
207.644765
 20
121.005980
 30
0.0
 0
VERTEX
 8
0
 10
207.322270
 20
121.203482
 30
0.0
 0
VERTEX
 8
0
 10
207.009770
 20
121.418479
 30
0.0
 0
VERTEX
 8
0
 10
206.712269
 20
121.650985
 30
0.0
 0
VERTEX
 8
0
 10
206.424763
 20
121.898482
 30
0.0
 0
VERTEX
 8
0
 10
206.152272
 20
122.163481
 30
0.0
 0
VERTEX
 8
0
 10
205.889760
 20
122.443480
 30
0.0
 0
VERTEX
 8
0
 10
205.642262
 20
122.735984
 30
0.0
 0
VERTEX
 8
0
 10
205.409764
 20
123.045981
 30
0.0
 0
VERTEX
 8
0
 10
204.984761
 20
123.708480
 30
0.0
 0
VERTEX
 8
0
 10
204.792271
 20
124.060981
 30
0.0
 0
VERTEX
 8
0
 10
204.617268
 20
124.425978
 30
0.0
 0
VERTEX
 8
0
 10
204.457265
 20
124.803481
 30
0.0
 0
VERTEX
 8
0
 10
204.309758
 20
125.195983
 30
0.0
 0
VERTEX
 8
0
 10
204.182271
 20
125.598479
 30
0.0
 0
VERTEX
 8
0
 10
204.067265
 20
126.013480
 30
0.0
 0
VERTEX
 8
0
 10
203.972264
 20
126.440978
 30
0.0
 0
VERTEX
 8
0
 10
203.892262
 20
126.880980
 30
0.0
 0
VERTEX
 8
0
 10
203.829762
 20
127.330985
 30
0.0
 0
VERTEX
 8
0
 10
203.811300
 20
127.519711
 30
0.0
 0
SEQEND
 8
0
 0
LINE
 8
0
 62
256
10
 203.811300
20
 127.519711
11
 206.168327
21
 127.521844
 0
LINE
 8
0
 62
256
10
 203.814850
20
 130.019715
11
 206.155922
21
 130.021834
 0
POLYLINE
 8
0
 62
7
 66
 1
 10
0.0
 20
0.0
 30
0.0
 0
VERTEX
 8
0
 10
269.679761
 20
98.048329
 30
0.0
 0
VERTEX
 8
0
 10
269.679761
 20
101.735984
 30
0.0
 0
VERTEX
 8
0
 10
270.122258
 20
101.808478
 30
0.0
 0
VERTEX
 8
0
 10
270.602261
 20
101.875983
 30
0.0
 0
VERTEX
 8
0
 10
271.117261
 20
101.938483
 30
0.0
 0
VERTEX
 8
0
 10
271.657261
 20
101.988478
 30
0.0
 0
VERTEX
 8
0
 10
272.214757
 20
102.030982
 30
0.0
 0
VERTEX
 8
0
 10
272.784756
 20
102.063483
 30
0.0
 0
VERTEX
 8
0
 10
273.922261
 20
102.090979
 30
0.0
 0
VERTEX
 8
0
 10
274.354764
 20
102.085982
 30
0.0
 0
VERTEX
 8
0
 10
274.769757
 20
102.068480
 30
0.0
 0
VERTEX
 8
0
 10
275.167264
 20
102.043479
 30
0.0
 0
VERTEX
 8
0
 10
275.547261
 20
102.005980
 30
0.0
 0
VERTEX
 8
0
 10
275.907261
 20
101.955985
 30
0.0
 0
VERTEX
 8
0
 10
276.252263
 20
101.895980
 30
0.0
 0
VERTEX
 8
0
 10
276.582257
 20
101.825980
 30
0.0
 0
VERTEX
 8
0
 10
276.894757
 20
101.743483
 30
0.0
 0
VERTEX
 8
0
 10
277.192258
 20
101.653479
 30
0.0
 0
VERTEX
 8
0
 10
277.474759
 20
101.548484
 30
0.0
 0
VERTEX
 8
0
 10
277.994763
 20
101.308478
 30
0.0
 0
VERTEX
 8
0
 10
278.459759
 20
101.023482
 30
0.0
 0
VERTEX
 8
0
 10
278.874760
 20
100.693480
 30
0.0
 0
VERTEX
 8
0
 10
279.174763
 20
100.388480
 30
0.0
 0
VERTEX
 8
0
 10
279.439763
 20
100.048484
 30
0.0
 0
VERTEX
 8
0
 10
279.669758
 20
99.675978
 30
0.0
 0
VERTEX
 8
0
 10
279.862263
 20
99.273482
 30
0.0
 0
VERTEX
 8
0
 10
280.017262
 20
98.843482
 30
0.0
 0
VERTEX
 8
0
 10
280.129758
 20
98.388480
 30
0.0
 0
VERTEX
 8
0
 10
280.199757
 20
97.913481
 30
0.0
 0
VERTEX
 8
0
 10
280.222256
 20
97.415984
 30
0.0
 0
VERTEX
 8
0
 10
280.204762
 20
97.005980
 30
0.0
 0
VERTEX
 8
0
 10
280.157261
 20
96.613478
 30
0.0
 0
VERTEX
 8
0
 10
280.079762
 20
96.238478
 30
0.0
 0
VERTEX
 8
0
 10
279.972256
 20
95.880980
 30
0.0
 0
VERTEX
 8
0
 10
279.837262
 20
95.540984
 30
0.0
 0
VERTEX
 8
0
 10
279.677258
 20
95.220984
 30
0.0
 0
VERTEX
 8
0
 10
279.494763
 20
94.918479
 30
0.0
 0
VERTEX
 8
0
 10
279.289761
 20
94.635985
 30
0.0
 0
VERTEX
 8
0
 10
279.062260
 20
94.370986
 30
0.0
 0
VERTEX
 8
0
 10
278.814763
 20
94.125983
 30
0.0
 0
VERTEX
 8
0
 10
278.552258
 20
93.900985
 30
0.0
 0
VERTEX
 8
0
 10
278.272259
 20
93.695983
 30
0.0
 0
VERTEX
 8
0
 10
277.977261
 20
93.508483
 30
0.0
 0
VERTEX
 8
0
 10
277.669758
 20
93.343482
 30
0.0
 0
VERTEX
 8
0
 10
277.352261
 20
93.198485
 30
0.0
 0
VERTEX
 8
0
 10
277.022259
 20
93.073485
 30
0.0
 0
VERTEX
 8
0
 10
277.022259
 20
92.995986
 30
0.0
 0
VERTEX
 8
0
 10
277.259762
 20
92.900985
 30
0.0
 0
VERTEX
 8
0
 10
277.484761
 20
92.788481
 30
0.0
 0
VERTEX
 8
0
 10
277.697262
 20
92.660979
 30
0.0
 0
VERTEX
 8
0
 10
277.899762
 20
92.513480
 30
0.0
 0
VERTEX
 8
0
 10
278.092259
 20
92.350981
 30
0.0
 0
VERTEX
 8
0
 10
278.272259
 20
92.170981
 30
0.0
 0
VERTEX
 8
0
 10
278.439763
 20
91.975981
 30
0.0
 0
VERTEX
 8
0
 10
278.599759
 20
91.763480
 30
0.0
 0
VERTEX
 8
0
 10
278.747258
 20
91.538481
 30
0.0
 0
VERTEX
 8
0
 10
278.887257
 20
91.295981
 30
0.0
 0
VERTEX
 8
0
 10
279.132260
 20
90.768485
 30
0.0
 0
VERTEX
 8
0
 10
279.339757
 20
90.180983
 30
0.0
 0
VERTEX
 8
0
 10
279.509762
 20
89.540984
 30
0.0
 0
VERTEX
 8
0
 10
279.612263
 20
89.100981
 30
0.0
 0
VERTEX
 8
0
 10
279.712262
 20
88.680983
 30
0.0
 0
VERTEX
 8
0
 10
279.809758
 20
88.278479
 30
0.0
 0
VERTEX
 8
0
 10
279.902257
 20
87.893485
 30
0.0
 0
VERTEX
 8
0
 10
279.992261
 20
87.525985
 30
0.0
 0
VERTEX
 8
0
 10
280.079762
 20
87.178481
 30
0.0
 0
VERTEX
 8
0
 10
280.164761
 20
86.850981
 30
0.0
 0
VERTEX
 8
0
 10
280.247258
 20
86.543479
 30
0.0
 0
VERTEX
 8
0
 10
280.327260
 20
86.255980
 30
0.0
 0
VERTEX
 8
0
 10
280.404759
 20
85.990981
 30
0.0
 0
VERTEX
 8
0
 10
280.479764
 20
85.743483
 30
0.0
 0
VERTEX
 8
0
 10
280.554761
 20
85.520980
 30
0.0
 0
VERTEX
 8
0
 10
280.624760
 20
85.318480
 30
0.0
 0
VERTEX
 8
0
 10
280.694760
 20
85.135985
 30
0.0
 0
VERTEX
 8
0
 10
280.764760
 20
84.978484
 30
0.0
 0
VERTEX
 8
0
 10
280.832257
 20
84.843482
 30
0.0
 0
VERTEX
 8
0
 10
278.544758
 20
84.843482
 30
0.0
 0
VERTEX
 8
0
 10
278.492261
 20
84.948485
 30
0.0
 0
VERTEX
 8
0
 10
278.434758
 20
85.078482
 30
0.0
 0
VERTEX
 8
0
 10
278.377263
 20
85.225981
 30
0.0
 0
VERTEX
 8
0
 10
278.317258
 20
85.395980
 30
0.0
 0
VERTEX
 8
0
 10
278.254758
 20
85.585982
 30
0.0
 0
VERTEX
 8
0
 10
278.189763
 20
85.798484
 30
0.0
 0
VERTEX
 8
0
 10
278.122258
 20
86.028479
 30
0.0
 0
VERTEX
 8
0
 10
278.052258
 20
86.278479
 30
0.0
 0
VERTEX
 8
0
 10
277.982258
 20
86.545981
 30
0.0
 0
VERTEX
 8
0
 10
277.907261
 20
86.833480
 30
0.0
 0
VERTEX
 8
0
 10
277.832257
 20
87.140982
 30
0.0
 0
VERTEX
 8
0
 10
277.754758
 20
87.463485
 30
0.0
 0
VERTEX
 8
0
 10
277.677258
 20
87.805983
 30
0.0
 0
VERTEX
 8
0
 10
277.594761
 20
88.163481
 30
0.0
 0
VERTEX
 8
0
 10
277.512257
 20
88.538481
 30
0.0
 0
VERTEX
 8
0
 10
277.427258
 20
88.930983
 30
0.0
 0
VERTEX
 8
0
 10
277.327260
 20
89.355979
 30
0.0
 0
VERTEX
 8
0
 10
277.214757
 20
89.748481
 30
0.0
 0
VERTEX
 8
0
 10
277.092259
 20
90.108481
 30
0.0
 0
VERTEX
 8
0
 10
276.954762
 20
90.435981
 30
0.0
 0
VERTEX
 8
0
 10
276.804761
 20
90.733481
 30
0.0
 0
VERTEX
 8
0
 10
276.639760
 20
91.003485
 30
0.0
 0
VERTEX
 8
0
 10
276.459759
 20
91.240981
 30
0.0
 0
VERTEX
 8
0
 10
276.262257
 20
91.453482
 30
0.0
 0
VERTEX
 8
0
 10
276.047261
 20
91.635985
 30
0.0
 0
VERTEX
 8
0
 10
275.814763
 20
91.795981
 30
0.0
 0
VERTEX
 8
0
 10
275.559758
 20
91.928481
 30
0.0
 0
VERTEX
 8
0
 10
275.287259
 20
92.038481
 30
0.0
 0
VERTEX
 8
0
 10
274.992261
 20
92.125983
 30
0.0
 0
VERTEX
 8
0
 10
274.677258
 20
92.190985
 30
0.0
 0
VERTEX
 8
0
 10
274.337262
 20
92.233481
 30
0.0
 0
VERTEX
 8
0
 10
273.972256
 20
92.258483
 30
0.0
 0
VERTEX
 8
0
 10
271.889760
 20
92.258483
 30
0.0
 0
VERTEX
 8
0
 10
271.889760
 20
84.843482
 30
0.0
 0
VERTEX
 8
0
 10
269.679761
 20
84.843482
 30
0.0
 0
VERTEX
 8
0
 10
269.679761
 20
95.548328
 30
0.0
 0
SEQEND
 8
0
 0
POLYLINE
 8
0
 62
7
 66
 1
 10
0.0
 20
0.0
 30
0.0
 0
VERTEX
 8
0
 10
271.889760
 20
95.550329
 30
0.0
 0
VERTEX
 8
0
 10
271.889760
 20
93.935981
 30
0.0
 0
VERTEX
 8
0
 10
274.149762
 20
93.935981
 30
0.0
 0
VERTEX
 8
0
 10
274.582257
 20
93.950980
 30
0.0
 0
VERTEX
 8
0
 10
274.994763
 20
93.995986
 30
0.0
 0
VERTEX
 8
0
 10
275.382260
 20
94.068480
 30
0.0
 0
VERTEX
 8
0
 10
275.749760
 20
94.168479
 30
0.0
 0
VERTEX
 8
0
 10
276.092259
 20
94.295981
 30
0.0
 0
VERTEX
 8
0
 10
276.409756
 20
94.448485
 30
0.0
 0
VERTEX
 8
0
 10
276.702260
 20
94.625983
 30
0.0
 0
VERTEX
 8
0
 10
276.967259
 20
94.828482
 30
0.0
 0
VERTEX
 8
0
 10
277.204762
 20
95.053481
 30
0.0
 0
VERTEX
 8
0
 10
277.412259
 20
95.298484
 30
0.0
 0
VERTEX
 8
0
 10
277.592259
 20
95.565985
 30
0.0
 0
VERTEX
 8
0
 10
277.739758
 20
95.853484
 30
0.0
 0
VERTEX
 8
0
 10
277.857258
 20
96.160979
 30
0.0
 0
VERTEX
 8
0
 10
277.942258
 20
96.485984
 30
0.0
 0
VERTEX
 8
0
 10
277.994763
 20
96.828482
 30
0.0
 0
VERTEX
 8
0
 10
278.012257
 20
97.188483
 30
0.0
 0
VERTEX
 8
0
 10
277.994763
 20
97.588485
 30
0.0
 0
VERTEX
 8
0
 10
277.939763
 20
97.958480
 30
0.0
 0
VERTEX
 8
0
 10
277.849759
 20
98.300978
 30
0.0
 0
VERTEX
 8
0
 10
277.724759
 20
98.615981
 30
0.0
 0
VERTEX
 8
0
 10
277.569760
 20
98.903479
 30
0.0
 0
VERTEX
 8
0
 10
277.382260
 20
99.163481
 30
0.0
 0
VERTEX
 8
0
 10
277.164761
 20
99.398482
 30
0.0
 0
VERTEX
 8
0
 10
276.919758
 20
99.605979
 30
0.0
 0
VERTEX
 8
0
 10
276.647259
 20
99.785979
 30
0.0
 0
VERTEX
 8
0
 10
276.347256
 20
99.940985
 30
0.0
 0
VERTEX
 8
0
 10
276.024762
 20
100.070983
 30
0.0
 0
VERTEX
 8
0
 10
275.677258
 20
100.178481
 30
0.0
 0
VERTEX
 8
0
 10
275.307263
 20
100.260985
 30
0.0
 0
VERTEX
 8
0
 10
274.914761
 20
100.318480
 30
0.0
 0
VERTEX
 8
0
 10
274.504758
 20
100.350981
 30
0.0
 0
VERTEX
 8
0
 10
274.074757
 20
100.363478
 30
0.0
 0
VERTEX
 8
0
 10
273.689763
 20
100.360984
 30
0.0
 0
VERTEX
 8
0
 10
273.337262
 20
100.350981
 30
0.0
 0
VERTEX
 8
0
 10
273.014760
 20
100.333480
 30
0.0
 0
VERTEX
 8
0
 10
272.724759
 20
100.313483
 30
0.0
 0
VERTEX
 8
0
 10
272.467259
 20
100.285979
 30
0.0
 0
VERTEX
 8
0
 10
272.242261
 20
100.255980
 30
0.0
 0
VERTEX
 8
0
 10
272.049763
 20
100.223479
 30
0.0
 0
VERTEX
 8
0
 10
271.889760
 20
100.185981
 30
0.0
 0
VERTEX
 8
0
 10
271.889760
 20
98.050330
 30
0.0
 0
SEQEND
 8
0
 0
LINE
 8
0
 62
256
10
 269.679761
20
 98.048329
11
 271.889760
21
 98.050330
 0
LINE
 8
0
 62
256
10
 269.679761
20
 95.548328
11
 271.889760
21
 95.550329
 0
POLYLINE
 8
0
 62
7
 66
 1
 10
0.0
 20
0.0
 30
0.0
 0
VERTEX
 8
0
 10
269.832257
 20
203.447305
 30
0.0
 0
VERTEX
 8
0
 10
269.832257
 20
206.813483
 30
0.0
 0
VERTEX
 8
0
 10
270.274762
 20
206.885978
 30
0.0
 0
VERTEX
 8
0
 10
270.754758
 20
206.953482
 30
0.0
 0
VERTEX
 8
0
 10
271.269757
 20
207.015982
 30
0.0
 0
VERTEX
 8
0
 10
271.809758
 20
207.065970
 30
0.0
 0
VERTEX
 8
0
 10
272.367261
 20
207.108481
 30
0.0
 0
VERTEX
 8
0
 10
272.934758
 20
207.140982
 30
0.0
 0
VERTEX
 8
0
 10
274.072262
 20
207.168479
 30
0.0
 0
VERTEX
 8
0
 10
274.507260
 20
207.163474
 30
0.0
 0
VERTEX
 8
0
 10
274.922261
 20
207.145972
 30
0.0
 0
VERTEX
 8
0
 10
275.317258
 20
207.120978
 30
0.0
 0
VERTEX
 8
0
 10
275.697262
 20
207.083472
 30
0.0
 0
VERTEX
 8
0
 10
276.059758
 20
207.033469
 30
0.0
 0
VERTEX
 8
0
 10
276.404759
 20
206.973471
 30
0.0
 0
VERTEX
 8
0
 10
276.732258
 20
206.903479
 30
0.0
 0
VERTEX
 8
0
 10
277.044758
 20
206.823478
 30
0.0
 0
VERTEX
 8
0
 10
277.342259
 20
206.730979
 30
0.0
 0
VERTEX
 8
0
 10
277.624760
 20
206.625983
 30
0.0
 0
VERTEX
 8
0
 10
278.144757
 20
206.385978
 30
0.0
 0
VERTEX
 8
0
 10
278.612263
 20
206.103476
 30
0.0
 0
VERTEX
 8
0
 10
279.027257
 20
205.773474
 30
0.0
 0
VERTEX
 8
0
 10
279.324757
 20
205.468482
 30
0.0
 0
VERTEX
 8
0
 10
279.589757
 20
205.128470
 30
0.0
 0
VERTEX
 8
0
 10
279.819760
 20
204.755973
 30
0.0
 0
VERTEX
 8
0
 10
280.014760
 20
204.353476
 30
0.0
 0
VERTEX
 8
0
 10
280.167264
 20
203.923468
 30
0.0
 0
VERTEX
 8
0
 10
280.279759
 20
203.468482
 30
0.0
 0
VERTEX
 8
0
 10
280.349759
 20
202.990973
 30
0.0
 0
VERTEX
 8
0
 10
280.372258
 20
202.495978
 30
0.0
 0
VERTEX
 8
0
 10
280.354764
 20
202.085974
 30
0.0
 0
VERTEX
 8
0
 10
280.307263
 20
201.693473
 30
0.0
 0
VERTEX
 8
0
 10
280.229764
 20
201.318473
 30
0.0
 0
VERTEX
 8
0
 10
280.122258
 20
200.960974
 30
0.0
 0
VERTEX
 8
0
 10
279.987263
 20
200.620978
 30
0.0
 0
VERTEX
 8
0
 10
279.827260
 20
200.300971
 30
0.0
 0
VERTEX
 8
0
 10
279.644757
 20
199.998481
 30
0.0
 0
VERTEX
 8
0
 10
279.439763
 20
199.713477
 30
0.0
 0
VERTEX
 8
0
 10
279.212262
 20
199.448478
 30
0.0
 0
VERTEX
 8
0
 10
278.964757
 20
199.203482
 30
0.0
 0
VERTEX
 8
0
 10
278.702260
 20
198.978476
 30
0.0
 0
VERTEX
 8
0
 10
278.422261
 20
198.773474
 30
0.0
 0
VERTEX
 8
0
 10
278.127263
 20
198.585974
 30
0.0
 0
VERTEX
 8
0
 10
277.819760
 20
198.420981
 30
0.0
 0
VERTEX
 8
0
 10
277.502263
 20
198.275977
 30
0.0
 0
VERTEX
 8
0
 10
277.172261
 20
198.150977
 30
0.0
 0
VERTEX
 8
0
 10
277.172261
 20
198.075980
 30
0.0
 0
VERTEX
 8
0
 10
277.409756
 20
197.980979
 30
0.0
 0
VERTEX
 8
0
 10
277.634762
 20
197.868476
 30
0.0
 0
VERTEX
 8
0
 10
277.847256
 20
197.738471
 30
0.0
 0
VERTEX
 8
0
 10
278.049763
 20
197.593482
 30
0.0
 0
VERTEX
 8
0
 10
278.242261
 20
197.430976
 30
0.0
 0
VERTEX
 8
0
 10
278.422261
 20
197.250983
 30
0.0
 0
VERTEX
 8
0
 10
278.592259
 20
197.055976
 30
0.0
 0
VERTEX
 8
0
 10
278.749760
 20
196.843482
 30
0.0
 0
VERTEX
 8
0
 10
278.899762
 20
196.615973
 30
0.0
 0
VERTEX
 8
0
 10
279.037259
 20
196.373481
 30
0.0
 0
VERTEX
 8
0
 10
279.282261
 20
195.845969
 30
0.0
 0
VERTEX
 8
0
 10
279.492261
 20
195.260978
 30
0.0
 0
VERTEX
 8
0
 10
279.662259
 20
194.620978
 30
0.0
 0
VERTEX
 8
0
 10
279.764760
 20
194.180976
 30
0.0
 0
VERTEX
 8
0
 10
279.864758
 20
193.760978
 30
0.0
 0
VERTEX
 8
0
 10
279.959759
 20
193.358481
 30
0.0
 0
VERTEX
 8
0
 10
280.054761
 20
192.970969
 30
0.0
 0
VERTEX
 8
0
 10
280.144757
 20
192.605979
 30
0.0
 0
VERTEX
 8
0
 10
280.232258
 20
192.258475
 30
0.0
 0
VERTEX
 8
0
 10
280.317258
 20
191.930976
 30
0.0
 0
VERTEX
 8
0
 10
280.397259
 20
191.623481
 30
0.0
 0
VERTEX
 8
0
 10
280.477261
 20
191.335974
 30
0.0
 0
VERTEX
 8
0
 10
280.554761
 20
191.068473
 30
0.0
 0
VERTEX
 8
0
 10
280.632260
 20
190.823478
 30
0.0
 0
VERTEX
 8
0
 10
280.704762
 20
190.598471
 30
0.0
 0
VERTEX
 8
0
 10
280.777257
 20
190.395972
 30
0.0
 0
VERTEX
 8
0
 10
280.847256
 20
190.213477
 30
0.0
 0
VERTEX
 8
0
 10
280.914761
 20
190.055976
 30
0.0
 0
VERTEX
 8
0
 10
280.982258
 20
189.920981
 30
0.0
 0
VERTEX
 8
0
 10
278.697262
 20
189.920981
 30
0.0
 0
VERTEX
 8
0
 10
278.644757
 20
190.025977
 30
0.0
 0
VERTEX
 8
0
 10
278.587262
 20
190.155982
 30
0.0
 0
VERTEX
 8
0
 10
278.529759
 20
190.303473
 30
0.0
 0
VERTEX
 8
0
 10
278.469761
 20
190.473471
 30
0.0
 0
VERTEX
 8
0
 10
278.407261
 20
190.665976
 30
0.0
 0
VERTEX
 8
0
 10
278.342259
 20
190.875983
 30
0.0
 0
VERTEX
 8
0
 10
278.274762
 20
191.105979
 30
0.0
 0
VERTEX
 8
0
 10
278.204762
 20
191.355979
 30
0.0
 0
VERTEX
 8
0
 10
278.134762
 20
191.625983
 30
0.0
 0
VERTEX
 8
0
 10
278.059758
 20
191.913474
 30
0.0
 0
VERTEX
 8
0
 10
277.984761
 20
192.218482
 30
0.0
 0
VERTEX
 8
0
 10
277.907261
 20
192.543479
 30
0.0
 0
VERTEX
 8
0
 10
277.829762
 20
192.885978
 30
0.0
 0
VERTEX
 8
0
 10
277.747258
 20
193.243476
 30
0.0
 0
VERTEX
 8
0
 10
277.664761
 20
193.618476
 30
0.0
 0
VERTEX
 8
0
 10
277.579762
 20
194.010978
 30
0.0
 0
VERTEX
 8
0
 10
277.479764
 20
194.435981
 30
0.0
 0
VERTEX
 8
0
 10
277.367261
 20
194.828482
 30
0.0
 0
VERTEX
 8
0
 10
277.242261
 20
195.188483
 30
0.0
 0
VERTEX
 8
0
 10
277.107258
 20
195.515982
 30
0.0
 0
VERTEX
 8
0
 10
276.957257
 20
195.813483
 30
0.0
 0
VERTEX
 8
0
 10
276.792264
 20
196.083472
 30
0.0
 0
VERTEX
 8
0
 10
276.609761
 20
196.320975
 30
0.0
 0
VERTEX
 8
0
 10
276.412259
 20
196.533469
 30
0.0
 0
VERTEX
 8
0
 10
276.197262
 20
196.715979
 30
0.0
 0
VERTEX
 8
0
 10
275.964757
 20
196.875983
 30
0.0
 0
VERTEX
 8
0
 10
275.712262
 20
197.008475
 30
0.0
 0
VERTEX
 8
0
 10
275.439763
 20
197.118476
 30
0.0
 0
VERTEX
 8
0
 10
275.144757
 20
197.205970
 30
0.0
 0
VERTEX
 8
0
 10
274.827260
 20
197.270972
 30
0.0
 0
VERTEX
 8
0
 10
274.487263
 20
197.313483
 30
0.0
 0
VERTEX
 8
0
 10
274.124760
 20
197.338477
 30
0.0
 0
VERTEX
 8
0
 10
272.042264
 20
197.338477
 30
0.0
 0
VERTEX
 8
0
 10
272.042264
 20
189.920981
 30
0.0
 0
VERTEX
 8
0
 10
269.832257
 20
189.920981
 30
0.0
 0
VERTEX
 8
0
 10
269.832257
 20
200.947304
 30
0.0
 0
SEQEND
 8
0
 0
POLYLINE
 8
0
 62
7
 66
 1
 10
0.0
 20
0.0
 30
0.0
 0
VERTEX
 8
0
 10
272.042264
 20
200.949305
 30
0.0
 0
VERTEX
 8
0
 10
272.042264
 20
199.015982
 30
0.0
 0
VERTEX
 8
0
 10
274.302258
 20
199.015982
 30
0.0
 0
VERTEX
 8
0
 10
274.734761
 20
199.030982
 30
0.0
 0
VERTEX
 8
0
 10
275.147259
 20
199.075980
 30
0.0
 0
VERTEX
 8
0
 10
275.534756
 20
199.148474
 30
0.0
 0
VERTEX
 8
0
 10
275.902257
 20
199.248481
 30
0.0
 0
VERTEX
 8
0
 10
276.244763
 20
199.375983
 30
0.0
 0
VERTEX
 8
0
 10
276.562260
 20
199.528479
 30
0.0
 0
VERTEX
 8
0
 10
276.852261
 20
199.705970
 30
0.0
 0
VERTEX
 8
0
 10
277.117261
 20
199.908469
 30
0.0
 0
VERTEX
 8
0
 10
277.354764
 20
200.130973
 30
0.0
 0
VERTEX
 8
0
 10
277.564763
 20
200.378470
 30
0.0
 0
VERTEX
 8
0
 10
277.742261
 20
200.645972
 30
0.0
 0
VERTEX
 8
0
 10
277.892262
 20
200.933478
 30
0.0
 0
VERTEX
 8
0
 10
278.007260
 20
201.240973
 30
0.0
 0
VERTEX
 8
0
 10
278.092259
 20
201.565970
 30
0.0
 0
VERTEX
 8
0
 10
278.144757
 20
201.908469
 30
0.0
 0
VERTEX
 8
0
 10
278.162259
 20
202.265982
 30
0.0
 0
VERTEX
 8
0
 10
278.144757
 20
202.665976
 30
0.0
 0
VERTEX
 8
0
 10
278.089757
 20
203.035971
 30
0.0
 0
VERTEX
 8
0
 10
277.999760
 20
203.378470
 30
0.0
 0
VERTEX
 8
0
 10
277.874760
 20
203.693473
 30
0.0
 0
VERTEX
 8
0
 10
277.719761
 20
203.980979
 30
0.0
 0
VERTEX
 8
0
 10
277.532261
 20
204.240973
 30
0.0
 0
VERTEX
 8
0
 10
277.314763
 20
204.475974
 30
0.0
 0
VERTEX
 8
0
 10
277.069760
 20
204.683478
 30
0.0
 0
VERTEX
 8
0
 10
276.797261
 20
204.863471
 30
0.0
 0
VERTEX
 8
0
 10
276.497258
 20
205.018470
 30
0.0
 0
VERTEX
 8
0
 10
276.174763
 20
205.148474
 30
0.0
 0
VERTEX
 8
0
 10
275.827260
 20
205.255973
 30
0.0
 0
VERTEX
 8
0
 10
275.457257
 20
205.338477
 30
0.0
 0
VERTEX
 8
0
 10
275.064763
 20
205.395972
 30
0.0
 0
VERTEX
 8
0
 10
274.654759
 20
205.428473
 30
0.0
 0
VERTEX
 8
0
 10
274.224759
 20
205.440970
 30
0.0
 0
VERTEX
 8
0
 10
273.839757
 20
205.438483
 30
0.0
 0
VERTEX
 8
0
 10
273.487263
 20
205.428473
 30
0.0
 0
VERTEX
 8
0
 10
273.167264
 20
205.410971
 30
0.0
 0
VERTEX
 8
0
 10
272.877263
 20
205.390982
 30
0.0
 0
VERTEX
 8
0
 10
272.619763
 20
205.363471
 30
0.0
 0
VERTEX
 8
0
 10
272.394757
 20
205.333472
 30
0.0
 0
VERTEX
 8
0
 10
272.202260
 20
205.300971
 30
0.0
 0
VERTEX
 8
0
 10
272.042264
 20
205.263480
 30
0.0
 0
VERTEX
 8
0
 10
272.042264
 20
203.449306
 30
0.0
 0
SEQEND
 8
0
 0
LINE
 8
0
 62
256
10
 269.832257
20
 200.947304
11
 272.042264
21
 200.949305
 0
LINE
 8
0
 62
256
10
 269.832257
20
 203.447305
11
 272.042264
21
 203.449306
 0
CIRCLE
 8
0
 62
256
 10
-108.837983
 20
475.981733
 40
2.000000
 0
CIRCLE
 8
0
 62
256
 10
341.245140
 20
475.964404
 40
2.000000
 0
CIRCLE
 8
0
 62
256
 10
341.343206
 20
26.036249
 40
2.000000
 0
CIRCLE
 8
0
 62
256
 10
-108.778307
 20
25.990552
 40
2.000000
 0
ENDSEC
 0
EOF
